Oops, an error
Loading. Please wait.

Broken Lungs Acoustic tab

version 2
version 2

Whole song

Interactive

by Thrice
8,281 views 9 this week
4 commentsread comments
1 2 3 4 5
1 last vote to show rating
add to favorites
×
Save as Personal and add changes to this tab that will be seen only by you. Learn more ›
×
You can save this tab as Personal to edit and correct it or add notes. All changes will be seen only by you. Learn more »
launch autoscroll
font size
0
reset
how to read this tab
guitar tuner
edit
Autoscroll
slow
fast
+/-
esc
set tempo
stop
this is the acoustic versin for the song, the video is on youtubeso, heres the link

http://www.youtube.com/watch?v=dTE0rYrbF1A

hope its right, enjoy

tabbed by: doppleganger78




tuning-dgcfad((both guitars))
gtr1=teppei
gtr2=dustin


 (gtr1-teppei)
|-0--0-0-0--0-0-0--0-0-0--0-0----------3--------------3--------|
|-1--1-1-1--1-1-1--1-1-1--1-0----0---0---0---0---0--0---0---0--|
|-2--2-2-2--2-2-0--0-0-0--0-0--5---5-------5---5---5------5----|
|-2--2-2-2--2-2-2--2-2-2--2-0----------------------------------|
|---------------3--3-3-3--3------------------------------------|
|--------------------------------------------------------------|
  (gtr2-dustin)               this could be a G-chord
|-0--0-0-0--0-0-0--0-0-0--0-0-0--0-0-0--0-0-0--0-0-0--|
|-1--1-1-1--1-1-1--1-1-1--1-1-1--1-1-1--1-1-1--1-1-1--|
|-2--2-2-2--2-2-0--0-0-0--0-0-0--0-0-0--0-0-0--0-0-0--|
|-2--2-2-2--2-2-2--2-2-2--2-2-0--0-0-0--0-0-0--0-0-0--|
|---------------3--3-3-3--3-3-2--2-2-2--2-2-2--2-2-2--|
|-----------------------------3--3-3-3--3-3-3--3-3-3--|


 (gtr1)
|-----------------------------------0-------------------|
|-----------------------------------1-------------------|
|-----------------------------------0-------------------|
|-----------------------------------2-------------------|
|-3-3-3-3-3-3-3-3-3-3-3-3-3-3-3-3-3-3-------------------|
|-1-1-1-1-1-1-1-1-1-1-1-1-1-1-1-1-1-x-------------------|
 (gtr2)
|-1-1-1-1-1-1-1-1-1-1-1-1-1-1-1-1-1---------0-----0-----|
|-1-1-1-1-1-1-1-1-1-1-1-1-1-1-1-1-1---------1-----1-----|
|-2-2-2-2-2-2-2-2-2-2-2-2-2-2-2-2-2---2---2---2-----2---|
|-3-3-3-3-3-3-3-3-3-3-3-3-3-3-3-3-3-3---3-------3-----3-|
|-------------------------------------------------------|
|-------------------------------------------------------|


play this chords the same way dustins intro is played...
(gtr1)
|-0-0-0-0-----------------------------------------------|
|-1-1-1-1-----------------------------------------------|
|-2-0-0-0-----------------------------------------------|
|-2-2-0-0-----------------------------------------------|
|---3-2-2-----------------------------------------------|
|-----3-3-----------------------------------------------|
 (gtr2)
|-8p7---------3----------------8p7--------3---------------------------|
|-----8\5-3h5---5--1-1-3-1-0------8\5-3h5---5-1-1-3--3--3\5-5-5-5-\3--|
|---------------------------------------------------------------------|
|---------------------------------------------------------------------|
|---------------------------------------------------------------------|
|---------------------------------------------------------------------|

 (gtr1)
|-0--0-0-0--0-0-0--0-0-0--0-0----------3--------------3--------|
|-1--1-1-1--1-1-1--1-1-1--1-0----0---0---0---0---0--0---0---0--|
|-2--2-2-2--2-2-0--0-0-0--0-0--5---5-------5---5---5------5----|
|-2--2-2-2--2-2-2--2-2-2--2-0----------------------------------|
|---------------3--3-3-3--3------------------------------------|
|--------------------------------------------------------------|
  (gtr2)                       or a G-chord
|-0--0-0-0--0-0-0--0-0-0--0-0-0--0-0-0--0-0-0--0-0-0--|
|-1--1-1-1--1-1-1--1-1-1--1-1-1--1-1-1--1-1-1--1-1-1--|
|-2--2-2-2--2-2-0--0-0-0--0-0-0--0-0-0--0-0-0--0-0-0--|
|-2--2-2-2--2-2-2--2-2-2--2-2-0--0-0-0--0-0-0--0-0-0--|
|---------------3--3-3-3--3-3-2--2-2-2--2-2-2--2-2-2--|
|-----------------------------3--3-3-3--3-3-3--3-3-3--|


|----------------------3---------------5------------|
|----------------3---3---3---3---3---3---3---3------|
|-0-0--0-0--0--5---5-------5---5---5-------5--------|
|-2-2--2-2--2---------------------------------------|
|-2-2--2-2--2---------------------------------------|
|-0-0--0-0--0---------------------------------------|


|-------------0----------------------------------------|
|-------------1-THEN JUST STRUM THIS-------------------|
|-0-0--0-0--0-2----------------------------------------|
|-2-2--2-2--2-2----------------------------------------|
|-2-2--2-2--2------------------------------------------|
|-0-0--0-0--0------------------------------------------|



Woke up to a brand new skyline
We licked our wounds and mourn the dead
Swallow the story hook and sinker
Is that what we meant when we said
That we never would forget?

Are we fools and cowards all
To let them cover up their lies?
Cause we all watched the buildings fall
Watched the scales fall from our eyes

A fire burns beneath Manhattan
Still we breathe with broken lungs
We act like none of this matters
Is that what we meant When we said
That we'd sing what must be sung?

Are we fools and cowards all
To let them cover up their lies?
Cause we all watched the buildings fall
Watched the scales fall from our eyes

We want answers
Scream from the roofs
We want justice
We want the truth



            
            
Suggest correction
Creating personal tab
Creating personal tab
You can edit any tab online and save it as your Personal.

You can edit, replace or remove any tab part or add personal notes – all changes will be seen only by you.

Personal tabs can be accessed anytime from any device, even offline.
Learn more »
Give kudos to tab author, rate the tab!
1 2 3 4 5
comments
print report bad tab
4 comments total. Showing first comments.
0 reply
Side Effect 10 Jun 11, 2008 03:16 PM

I played most of the lead parts and they seem right. Didn't play the chords yet so I'm not sure about. So I'll give you 4 stars for now.

0 reply
dedbolt 10 Jun 18, 2008 06:53 PM

na man..the lead into sounds wrong to me
check out the way its written in the other tab (the non-acoustic one)

0 reply
Tomozaurus 230 Aug 28, 2008 11:28 PM

They play it 1 step down (D G C F A d) even when playing acousticly.

guest
You may want to rate the tab now too:
select rating
Wanna post a correction for this tab? Suggest correction