Oops, an error
Loading. Please wait.

Circles tab

version 2
version 2

Whole song

by Thrice
9,388 views 6 this week
2 commentsread comments
1 2 3 4 5
x 4
add to favorites
×
Save as Personal and add changes to this tab that will be seen only by you. Learn more ›
×
You can save this tab as Personal to edit and correct it or add notes. All changes will be seen only by you. Learn more »
launch autoscroll
font size
0
reset
how to read this tab
guitar tuner
edit
Autoscroll
slow
fast
+/-
esc
set tempo
stop
I made some minor changes, and
I think it sounds a lot
better now. 


*Standard Tuning, Capo 3*

Every chord is relative to capo

Chords:

  Asus2  Em  G   C   Cadd9   Asus2* (see bottom)
|-0------0---3---0---3-----------------|
|-0------0---3---1---3-----------------|
|-2------0---0---0---0-----------------|
|-2------2---0---2---2-----------------|
|-0------2---2---3---3-----------------|
|------------3---0---0-----------------|



Intro:

|--------------------------|
|--------------------0-----|
|--2--0--2--0--2--0-----0--|  x 2
|--------------------------|
|--------------------------|
|--------------------------|

            Asus2            Em
We talk too much, we talk in circles

               G                           C                      Asus2*
Till we're all spinning round reaching for rings on this merry-go-round

        Asus2               Em
Scenery spins, we call it progress

                    G 
I've seen this all before

                C                        Asus2*
When all's said done we wake up on the floor

   Cadd9  G         Asus2    Em       G           
We set    sail with no fixed star in sight

   Cadd9  G    Asus2       Em     G    
We drive  by   Braille and candle light

               Asus2              Em
We're building towers with no foundation

              G                   
Just stacking stone on stone

            C                          Asus2*
Whatever it takes, Mix our mortar with bones

              Asus2
True progress means 

             Em                    G
matching the world to the vision in our heads 

          C                   Asus2*
We always change the vision instead

   Cadd9  G         Asus2    Em         G           
We set    sail with no fixed star in sight

   Cadd9   G    Asus2       Em       G    
We drive   by   Braille and candle light


Asus2* (strummed, but similar to intro):

|---------------------------|
|--0--0--0--0--0---0--0--0--|
|--2--0--2--0--2---0--4--0--|  x 2
|--2--2--2--2--2---2--2--2--|
|--0--0--0--0--0---0-----0--|
|--0--0--0--0--0---0-----0--|


Solo:

|--------------------------------|
|--------------------------------|
|--------------------------------|
|--4h5--4h5--4h5--4h5--4h5--4h5--|
|--4----4----4----4----4----4----|
|--------------------------------|

|--------------------------------|
|--------------------------------|
|--------------------------------|
|--4h5--4h5--4h5--4h5--4h5--4h5--|
|--4----4----4----4----4----4----|
|--------------------------------|

|----------0--------------------------|
|----------0--------------------------|
|-------------------------------------|
|-2--2--2-----0000--2--2--2--2--0000--|
|-2--2--2-----0000--2--2--2--2--0000--|
|-0--0--0-----0000--0--0--0--0--0000--|

|----------------------------|
|----------------------------|
|--------4-------4-----------|
|--4h5-4---4h5-4---4h5-4h5---|
|--4-------4-----------------|
|----------------------------|

|----------0--------------------------|
|----------0--------------------------|
|-------------------------------------|
|-2--2--2-----0000--2--2--2--2--0000--|
|-2--2--2-----0000--2--2--2--2--0000--|
|-0--0--0-----0000--0--0--0--0--0000--|

I don't want to copy the other tab, so
just look at it for this part. it goes
something like this:

|-10-11-10-----------10-11-13-11-10--|
|------------------------------------|
|------------------------------------|
|------------------------------------|
|------------------------------------|
|------------------------------------|

            
            
Suggest correction
Creating personal tab
Creating personal tab
You can edit any tab online and save it as your Personal.

You can edit, replace or remove any tab part or add personal notes – all changes will be seen only by you.

Personal tabs can be accessed anytime from any device, even offline.
Learn more »
comments
print report bad tab
2 comments total.
0 reply
Tomozaurus 230 Sep 17, 2009 03:29 PM

Sounds pretty good. Certainly better than the other one.

0 reply
Wontons 50 Aug 15, 2013 07:51 PM

Chords are wrong. The song is Gm A# Cm D# for the verse. I like it with capo on third fret but the chords are Em G Am C for the verse if you use the capo on 3.

guest
You may want to rate the tab now too:
select rating
Wanna post a correction for this tab? Suggest correction