Oops, an error
Loading. Please wait.

Daedalus Tab

version 1
version 1

Whole song

Interactive

12,378 views 6 this week
no commentswrite comment
1 2 3 4 5
please rate
add to favorites
launch autoscroll
font size
0
reset
how to read this tab
guitar tuner
Autoscroll
slow
fast
+/-
esc
set tempo
stop
Help us to improve Ultimate-Guitar.com Take our survey!
×
Contributor
Difficulty
Tuning
intermediate
D A D G B E
Tab by Oggy.

This took me a long time to tab, it may not be perfect, but this is how i play it and it 
for me.

tuning is drop D DADGBE

GTR1

-7\----------------7\----------------|
---5-8--56-1-3-1----55-8-5-6-5-------|
--------------------------------7-5--|
-------------------------------------|
-------------------------------------|
-------------------------------------|

---3---3--3--3--|
-\5--55-55-55---|
----------------| x2
----------------|
----------------|
----------------|

-8-75-8-75-8-75-8-75--|
-----8----8----8----8-|
----------------------|
----------------------|
----------------------|
----------------------|

-----------|
-----5-----|
-2-2-------| x4
-----------|
-----------|
-----------|

GTR2
----------------------------|
--5----5----5----5--5-65--5-|
-2--2-2-2--2--2-2-2------2--|
----------------------------|
----------------------------|
----------------------------|

---1-------1-------1------0-1-0-|
--1-1-----1-1-----1-1-----------|
-2---2---2---2---2---2---2------|
--------------------------------|
--------------------------------|
--------------------------------|

---------------------------------|
----0-------0-------0-------0----|
---5-------5-------5-------5-----|
-7-------7-------7-------7-------|
---------------------------------|
---------------------------------|

first time, back to beginning second time go to:
------------------------------------|
------------------------------------|
----7--------7--------7-------------|
--11-11----11-11----11-11-----------|
-7-----7--7-----7--7-----7----------|
------------------------------------|

VERSE
both GTRS
---5----------------0----------------8----------------7-|
--5----------------0----------------6----------------6--|
-2----------------2----------------7----------------7---|
--------------------------------------------------------|
--------------------------------------------------------|
--------------------------------------------------------|

---5----------------0----------------8-----------8-10-7-|
--5----------------0----------------6-----------------6-|
-2----------------2----------------7------------------7-|
--------------------------------------------------------| Then...
--------------------------------------------------------|
--------------------------------------------------------|

GTR1
-7\----------------7\---------------|
---5-8--5-8-5--------5-8--5-8-5-----|
------------------------------------|
------------------------------------|
------------------------------------|
------------------------------------|

---0------0------0----8---7-|
--6-6----6-6----6-6---------|
-7---7--7---7--7---7--------|
----------------------------|
----------------------------|
----------------------------|

-7\----------------7\---------------|
---5-8--5-8-5--------5-8--5-8-5-----|
------------------------------------|
------------------------------------|
------------------------------------|
------------------------------------|

--5-5-5-5-5-5-5-5-5-13--12-|
-8-8-8-8-8-6-6-6-6---------|
---------------------------|
---------------------------|
---------------------------|
---------------------------|

GTR2
-0-000-8888-|
-1-111------|
-2-222------| x2
------------|
------------|
------------|

-0-000-13-13-13-13-13-13-|
-6-666-15-15-15-15-15-15-|
-7-777-------------------|
-------------------------|
-------------------------|
-------------------------|

-0-000-13-13-13-13-13-12-|
-6-666-15-15-15-15-15-15-|
-7-777-------------------|
-------------------------|
-------------------------|
-------------------------|

CHORUS
GTR1
-1-111-11-1-1--0-000-00-0-0--------|
-1-111-11-1-1--1-111-11-1-1--------|
-2-222-22-2-2--2-222-22-2-2--------|
-3-333-33-3-3--2-222-22-2-2--------|
---------------0-000-00-0-0-3-5-7--|
-----------------------------------|

-0-000-00-0-0-|
-0-000-00-0-0-|
-1-111-11-1-1-|
-2-222-22-2-2-|
--------------|
--------------|

-0-000-00-0-0-0-000-00-0-0--0---|
-6-666-66-6-6-5-555-55-5-5--1---|
-7-777-77-7-7-4-444-44-4-4--2---|
--------------------------------|
--------------------------------|
--------------------------------|

VERSE

BRIDGE
-7----5----3----2----1---------0------|
-5----5----5----4----3---------3------|
-5----5----5----5----4---------1------|
-------------------------------2------|
--------------------------------------|
--------------------------------------|

CHORUS

Then:
-------------------------|
-------------------------|
---------0-2-------0-2---|
-----0-2---------0-----2-| x2
-0-3---------0-3---------|
-------------------------|

--------------------------|
--------------------------|
--------------------------|
---------6-8-------6-8----| x2
-----5-7---------5-----7--|
-6-8---------6-8----------|

bass only, then:

GTR1
----------------|
----------------|
----------------|
-7\9------------|
-----7----5\3-0-|
----------------|


----------------|
----------------|
----------------|
-7\9----------5-|
-----7----5\3---|
----------------|

GTR2 second time only
----------------|
----------------|
----------------|
----------------|
-----8----5---0-|
----------------|

----------------|
----------------|
----------------|
-7\9------------|
-----8----5---0-|
----------------|

Outro:
-------------|
-------------|
---------0-2-| repeat until end
-----0-2-----|
-0-3---------|
-------------|

There is a very high part that i can't quite make out

Thanks. Oggy
Suggest correction new What's this?
You can suggest a correction to this tab. Community and Mods will review your correction and vote to approve or reject it.
comments
We did not receive enough feedback on this tab! Please rate:
print report bad tab
1 2 3 4 5
guest
You may want to rate the tab now too:
select rating
Please do not post tabs as comments. Select "correction" instead!