Oops, an error
Loading. Please wait.

Deadbolt bass

version 2
version 2

Whole song

Interactive

by Thrice
2,887 views 3 this week
no commentswrite comment
1 2 3 4 5
2 more votes to show rating
add to favorites
×
Save as Personal and add changes to this tab that will be seen only by you. Learn more ›
×
You can save this tab as Personal to edit and correct it or add notes. All changes will be seen only by you. Learn more »
launch autoscroll
font size
0
reset
guitar tuner
backing track
0:00
0:00
edit
Autoscroll
slow
fast
+/-
esc
set tempo
stop
Difficulty
intermediate
-------------------------------------------------------------------------------
			     Deadbolt -Thrice
-------------------------------------------------------------------------------

Tabbed By : Andrew (Burns86)
e-mail: burns86@hotmail.com

Tuning: Dropped D 1/2 Step Down (C#G#C#F#)
*Note*: I added the spaces to help distinguish timing.
Playing the bass this way is a lot funner and I personally think it sounds better than 
tabs that just show it doing the same as the rhythm guitar.
For anybody who knows Thrice, would know that the intro riff was made on the bass in the 
place. So why not put it where it belongs, eh? :D

Intro (0:00)
G|---------------------------------------------------------------------------|
D|-0---7-0-0-5-0-0-3-0-0-2-0-0-3-0-5-0-0-3-0-0-2-0-3-0-0---------------------|
A|-------------------------------------------------------3-0-0-3-5-----------|
E|---------------------------------------------------------------------------|X4
 *Hint* After each pressed note, do a pull off to get the first open sound. Then pluck 
pick the second open note.

Verse (0:14)
G|---------------------------------------------------------------------------|
D|---------------------------------------------------------------------------|
A|---------------------------------------------------------------------------|
E|-5---5---5-5-5-5-5---5---5-5-5-5-5---5---5-5-5-5-5---5---5-5-5-5-----------|

G|---------------------------------------------------------------------------|
D|-----2h3p2-----------2h3p2-----------2h3p2-----------2h3p2-----------------|
A|-----------3p0-------------3p0-------------3p0-------------3p0-------------|
E|-0-------------0-0-------------0-0-------------0-0-------------------------|x2

Verse (0:29)
G|---------------------------------------------------------------------------|
D|---------------------------------------------------------------------------|
A|-1---1---1-1-1-1-1---1---1-1-1-1-------------------------------------------|
E|---------------------------------5---5---5-5-5-5-7---7---7-7-7-7-----------|

G|---------------------------------------------------------------------------|
D|-0-0-2-0-3-0-0-5-0-3-0-0-2-3-2-0-0-0-2-0-3-0-0-5-0-3-0-0-2-3-2-0-----------|
A|---------------------------------------------------------------------------|
E|---------------------------------------------------------------------------|x1
   *Hint* same as intro, pull off to get first open sound.

Verse (0:36)
G|---------------------------------------------------------------------------|
D|---------------------------------------------------------------------------|
A|-1---1---1-1-1-1-1---1---1-1-1-1-------------------------------------------|
E|---------------------------------5---5---5-5-5-5-7---7---7-7-7-7-----------|

G|---------------------------------------------------------------------------|
D|---------------------------------------------------------------------------|
A|------------------------3--3-----------------------------------------------|
E|-0--0-------------------------3--3-----------8--8-----------5--5--5--5-----|

G|---------------------------------------------------------------------------|
D|---------------------------------------------------------------------------|
A|------------------------3--3-----------------------------------------------|
E|-0--0--3--5/10\8--------------3--3-----------8--8-----------5--5--5--5-----|

Chorus (0:53)
G|---------------------------------------------------------------------------|
D|---------------------------------------------------------------------------|
A|-----------------3-3-3-3---------------------------------------------------|
E|-0-0-0-0-0-0-0-0---------3-3-3-3-8-8-8-8-8-8-8-8-5-5-5-5-5-5-5-5-----------|x2

Post Chorus (1:07)
G|---------------------------------------------------------------------------|
D|---------------------------------------------------------------------------|
A|---------------------------------------------------------------------------|
E|-5-5-5-5-5-5-5-5-5-5-5-5-5-5-5-8-8-8-8-8-8-8-8-8-8-8-8-8-8-8-8-------------|

G|---------------------------------------------------------------------------|
D|---------------------------------------------------------------------------|
A|---------------------------------------------------------------------------|
E|-5-5-5-5-5-5-5-5-5-5-5-5-5-5-5-0-0-0-0-0-0-0-0-7-7-7-7-7-7-7-7-------------|

Bridge (1:21)
G|---------------------------------------------------------------------------|
D|---------------------------------------------------------------------------|
A|--------------------5--5--5------------------------------------------------|
E|-0-0-0-0-0-0-0-0-0-----------3--3--3--3--3--3--3>--------------------------|

G|---------------------------------------------------------------------------|
D|---------------------------------------------------------------------------|
A|---------------------------------------------------------------------------|
E|-8-8-8-8-8-8-8-8-8--8--8--8--5--5--5--5--5--5--5>--------------------------|x2

Bridge (1:35)
G|---------------------------------------------------------------------------|
D|---------------------------------------------------------------------------|
A|-------0--------5--5--5----------------------------------------------------|
E|-0--0--0--0--0-----------3--3--3--3--3--3--3>------------------------------|

G|---------------------------------------------------------------------------|
D|---------------------------------------------------------------------------|
A|---------------------------------------------------------------------------|
E|-8--8--8--8--8--8--8--8--5--5--5--5--5--5--5>------------------------------|x2

Outro (1:48)
G|---------------------------------------------------------------------------|
D|---------------------------------------------------------------------------|
A|-2>>>>>>>------------------------------------------------------------------|
E|----------0>>>>>>>-5>>>>>>>>>>>>>>>----------------------------------------|x3

Outro (2:16)
G|---------------------------------------------------------------------------|
D|---------------------------------------------------------------------------|
A|-2>>>>>>>------------------------------------------------------------------|
E|----------0>>>>>>>-5>>>>>>>--2-2-2-2-2-2-2-2-2-2-2-2-----------------------|
                                #3#   #3#   #3#   #3#

|#3# Triplets
| /  Slide Up
| \  Slide Down
| h  Hammer-On
| p  Pull-Off
| ~  Vibrato
| +  Harmonic
| x  Mute note
| >  Hold note
===============================================================================

            
            
Suggest correction
Creating personal tab
Creating personal tab
You can edit any tab online and save it as your Personal.

You can edit, replace or remove any tab part or add personal notes – all changes will be seen only by you.

Personal tabs can be accessed anytime from any device, even offline.
Learn more »
Give kudos to tab author, rate the tab!
1 2 3 4 5
comments
print report bad tab
guest
Wanna post a correction for this tab? Suggest correction