Oops, an error
Loading. Please wait.

In Exile Tab

version 1
version 1

Whole song

Interactive

37,501 views 12 this week
3 commentsread comments
1 2 3 4 5
x 9
add to favorites
launch autoscroll
font size
0
reset
how to read this tab
guitar tuner
Autoscroll
slow
fast
+/-
esc
set tempo
stop
Help us to improve Ultimate-Guitar.com Take our survey!
×
Author
Difficulty
intermediate
I first heard this when Vagrant put the pre screening promotion video on youtube. I was
surprised that it was up there. I wonder if Thrice gave the ok? I don't know, but as
as I heard this I had to learn it. I can't wait to get the CD! This is my first tab so 
might be mistakes. Hope you like it!

Band: Thrice
Song: In Exile
Album: Beggars (in stores 9/15/09!)

Tuning Whole Step Down
d
A
F
C
G
D

Intro
Guitar I
d|------------------------------------------|  X2
A|------------------------------------------|
F|------------------------------------------|
C|------2----------------2------------------|
G|-4-4----4---------4-4----4----------------|
D|----------2-0-0-------------2-2-4-0-------|

Guitar II
d|-----------------|  X2
A|---------------9-|
F|------9----------|
C|-6-------7//9----|
G|-----------------|
D|-----------------|

Intro  (heavy part)
Guitar I                              X4   (on the last very line end with)
d|-------------------------------------|     d|-4-|
A|------------------5-5-5--5-----------|     A|-5-|
F|-6-6-6--6---------6-6-6--6-----------|     F|-6-|
C|-6-6-6--6--4--2---6-6-6--6--4-4-6--2-|     C|-6-|
G|-4-4-4--4--4--2---4-4-4--4--4-4-6--2-|     G|-4-|
D|-----------2--0-------------2-2-4--0-|     D|---|

Intro heavy part
Guitar II                 (on the last very line end with)
d|-----------------|  X4 d|----|
A|---------------9-|     A|--9-|
F|------9----------|     F|--9-|
C|-6-------7//9----|     C|-11-|
G|-----------------|     G|----|
D|-----------------|     D|----|

First Verse
Guitar I (same as heavy intro part)

                Intro (both the guitars same a heavy intro)
Second Verse
Guitar I (same as first verse)

Chorus               listen for pattern
Guitar I
d|-5-------4-|
A|-5-------5-|
F|-6-------6-|
C|-7-------6-|
G|-7-------4-|
D|-5---------|

Chorus
Guitar II                                   use same ending as intro
d|------------------------------------------------------------------|
A|-----------9-----------------9----------------9-----------------9-|
F|---9------------------9----------------9----------------9---------|
C|-7----7//9----4-4-6-7---7//9---4-4-6-7---7//9---4-4-6-7----7//9---|
G|------------------------------------------------------------------|
D|------------------------------------------------------------------|

                          Short Heavy Intro

Third Verse
Guitar I
d|-----------------------------------------------------------------------|
A|-----------------------------------------------------------------------|
F|-----------------------------------------------------------------------|
C|-----2-------------2----------------2----------------------2-----------|
G|-2-4---4--------2-4--4-----------2-4---4-------4p2h4---2-4---4---------|
D|---------2-0-0---------2-2-4-0-----------2-0-0-----------------2-2-4-0-|


                             Chorus

Bridge
Guitar I (Same chords as chorus. Different pattern and tempo though)

Bridge
Guitar II
d|-9--9-11-12--12-12-9--9-11-12--9--9-11-12-12-14-9--9-11-12-|
A|----------------------------9----------------------------9-|
F|----------------------------9----------------------------9-|
C|---------------------------11---------------------------11-|
G|-----------------------------------------------------------|
D|-----------------------------------------------------------|

   Tremelo picking (listen for the pattern)
d|9-11-12-14--9-11-12--|
A|------------------9--|
F|------------------9--|
C|---------------------|
G|---------------------|
D|---------------------|

Outro
Guitar I (same chords as chorus but strummed much slower)

Outro
Guitar II
d|-9-11-12--9-11-12--9-11-12--9-11-9-|
A|----------------9----------------9-|
F|----------------9----------------9-|
C|---------------11---------------11-|
G|-----------------------------------|
D|-----------------------------------|

I'm sure there is so much more to this song, but is a playable breakdown of it. Like I
I can't wait for the CD. Thrice is the greatest band ever!
Suggest correction
comments
print report bad tab
3 comments total.
+1 reply
Tomozaurus 230 Aug 13, 2009 10:01 AM

Very good.

0 reply
californiacane 104 Mar 07, 2010 12:15 PM

Great song

0 reply
FinderofNemo 337 Jan 19, 2014 02:04 AM

Good stuff. Pretty sure there's a little more going on in the first part of the outro though

guest
You may want to rate the tab now too:
select rating
Wanna post a correction for this tab? Suggest correction