Oops, an error
Loading. Please wait.

Lullaby tab

by Thrice
2,711 views 3 this week
1 commentread comment
1 2 3 4 5
x 6
add to favorites
×
Save as Personal and add changes to this tab that will be seen only by you. Learn more ›
×
You can save this tab as Personal to edit and correct it or add notes. All changes will be seen only by you. Learn more »
launch autoscroll
font size
0
reset
how to read this tab
guitar tuner
edit
Autoscroll
slow
fast
+/-
esc
set tempo
stop
Author
Difficulty
-------------------------------------------------------------------------------
                             Lullaby - Thrice
-------------------------------------------------------------------------------
Tabbed by: Brandon Rogers
Email: btrogers@llu.edu

Tuning: Standard

Intro- up and down strumming, each chord is played 32x
e|---------4----------5--------2--------5------------------------------------------|
B|---------5----------5--------2--------5------------------------------------------|
G|---------6----------6--------2--------6------------------------------------------|
D|---------6----------7--------4--------7------------------------------------------|
A|---------4----------7--------4--------7------------------------------------------|
E|---------X----------X--------X--------X------------------------------------------|

Intro repeats for guitar 1
Guitar 2 comes in with:
e|---------------------------------------------------------------------------|
B|---------------------------------------------------------------------------|
G|---------------------------------------------------------------------------|
D|---11--9h11-------------9--11-------11--9h11---------------9--11-----------|
A|--------------------11---------------------------------11------------------|
E|-----------------9-----------------------------------9---------------------|

e|-------------------------------------------------------------------------------|
B|-------------------------------------------------------------------------------|
G|-------------------------------------------------------------------------------|
D|---11--9h11---------------9--11------------------------------------------------|
A|---------------------11--------------------------------------------------------|
E|-----------------9-------------------------12--11--7--9-4----------------------|

e|--------------------------------------------------------------------------------|
B|--------------------------------------------------------------------------------|
G|--------------------------------------------------------------------------------|
D|---------6h7-----------6---7------6h7----------6--7-----------------------------|
A|-------------------7------------------------7-----------------------------------|
E|----5----------5-----------------------5----------------------------------------|

e|-------------------------------------------------------------------------------|
B|-------------------------------------------------------------------------------|
G|-------------------------------------------------------------------------------|
D|----6h7-----------6--7------6h7---------------6--------------------------------|
A|---------------7---------------------------7-----------------------------------|
E|-----------5---------------------------5---------------------------------------|

e|---------------------------------------------------------------------------------|
B|---------------------------------------------------------------------------------|
G|---------------------------------------------------------------------------------|
D|---4--4---------------2----4--------4-----------------------2----4---------------|
A|--------------2---4---------------------------------2---4------------------------|
E|----------2-------------------------------------2--------------------------------|

e|---------------------------------------------------------------------------------|
B|---------------------------------------------------------------------------------|
G|---------------------------------------------------------------------------------|
D|---4--4---------------2----4--------4---4-------------------2----4---------------|
A|--------------2---4---------------------------------2---4------------------------|
E|----------2-------------------------------------2--------------------------------|


e|-------------------------------------------------------------------------------|
B|-------------------------------------------------------------------------------|
G|-------------------------------------------------------------------------------|
D|----7----6h7-------------6---7-----6h7---------------6--7----------------------|
A|---------------------7---------------------------7-----------------------------|
E|-----------------5--------------------------5----------------------------------|

e|---------------------------------------------------------------------------------|
B|---------------------------------------------------------------------------------|
G|---------------------------------------------------------------------------------|
D|---6h7---------------6---7----6h7----------------6-------------------------------|
A|-----------------7---------------------------7-----------------------------------|
E|-----------5----------------------------5----------------9/4---------------------|


e|-----------------------------------------------------------------------------|
B|-----------------------------------------------------------------------------|
G|----Guitars muted for the killer bass sweep----------------------------------|
D|-----------------------------------------------------------------------------|
A|-----------------------------------------------------------------------------|
E|-----------------------------------------------------------------------------|

Verse
e|------------------------------------------------------------------------------|
B|------------------------------------------------------------------------------|
G|------------------------------------------------------------------------------|
D|-----------2----------------------------1-1-1---------------------------------|
A|---4--4----------------------------4-----------4------------------------------|
E|---------------4-------------4--4------------------2-2-2-4--------------------|

e|-----------------------------------------------------------------------------|
B|-----------------------------------------------------------------------------|
G|-----------------------------------------------------------------------------|
D|---------2-------------------------2-2-2-------------------------------------|
A|---4-4-------------------------4-----------4--2-2-2--------------------------|
E|-------------4------------4-4---------------------------4--------------------|

e|------------------------------------------------------------------------------|
B|------------------------------------------------------------------------------|
G|------------------------------------------------------------------------------|
D|-----------2----------------------------1-1-1---------------------------------|
A|---4--4----------------------------4-----------4------------------------------|
E|---------------4-------------4--4------------------2-2-2-4--------------------|

e|-----------------------------------------------------------------------------|
B|-----------------------------------------------------------------------------|
G|-----------------------------------------------------------------------------|
D|---------2-------------------------2-2-2-------------------------------------|
A|---4-4-------------------------4-----------4--2-2-2--------------------------|
E|-------------4------------4-4---------------------------4--------------------|

Below: Downpick F#5 and A5 16 times each
e|-------------------------------------------------------------------------------|
B|-------------------------------------------------------------------------------|
G|-------------------------------------------------------------------------------|
D|-------------------------------------------------------------------------------|
A|-----4-----------------------7-------------------------------------------------|
E|-----2-----------------------5-------------------------------------------------|

e|------------------------------------------------------------------------------|
B|------------------------------------------------------------------------------|
G|------------------------------------------------------------------------------|
D|-----------2----------------------------1-1-1---------------------------------|
A|---4--4----------------------------4-----------4------------------------------|
E|---------------4-------------4--4------------------2-2-2-4--------------------|

e|-----------------------------------------------------------------------------|
B|-----------------------------------------------------------------------------|
G|-----------------------------------------------------------------------------|
D|---------2-------------------------2-2-2-------------------------------------|
A|---4-4-------------------------4-----------4--2-2-2--------------------------|
E|-------------4------------4-4---------------------------4--------------------|

e|------------------------------------------------------------------------------|
B|------------------------------------------------------------------------------|
G|------------------------------------------------------------------------------|
D|-----------2----------------------------1-1-1---------------------------------|
A|---4--4----------------------------4-----------4------------------------------|
E|---------------4-------------4--4------------------2-2-2-4--------------------|

e|-----------------------------------------------------------------------------|
B|-----------------------------------------------------------------------------|
G|-----------------------------------------------------------------------------|
D|---------2-------------------------2-2-2-------------------------------------|
A|---4-4-------------------------4-----------4--2-2-2--------------------------|
E|-------------4------------4-4---------------------------4--------------------|

Pre-chorus: Same riff but repeated this time.
e|---------------------------------------------------------------------------------|
B|---------------------------------------------------------------------------------|
G|---------------------------------------------------------------------------------|
D|---------------------------------------------------------------------------------|
A|-----4-----------------------7----------------4---------7------------------------|
E|-----2-----------------------5----------------2---------5------------------------|

Chorus
e|-------------------------------------------------------------------------------|
B|-------------------------------------------------------------------------------|
G|-------------------------------------------------------------------------------|
D|---6--4h6----------------4--6-------4h6----------4-----------------------------|
A|-------------------6-------------------------6---------------------------------|
E|---------------4-------------------------4-------------------------------------|

e|-------------------------------------------------------------------------------|
B|-------------------------------------------------------------------------------|
G|-------------------------------------------------------------------------------|
D|---2---1h2-------------1--2----1h2----------------1----------------------------|
A|-------------------2-------------------------2---------------------------------|
E|---------------0------------------------0--------------------------------------|

e|-------------------------------------------------------------------------------|
B|-------------------------------------------------------------------------------|
G|-------------------------------------------------------------------------------|
D|----7----6h7--------------6---7-----6h7---------------6--7---------------------|
A|---------------------7---------------------------7-----------------------------|
E|-----------------5--------------------------5----------------------------------|

e|--------------------------------------------------------------------------------|
B|--------------------------------------------------------------------------------|
G|--------------------------------------------------------------------------------|
D|---6--4h6--------------4--6-------4h6-------------4-----------------------------|
A|-------------------6-------------------------6----------------------------------|
E|---------------4-------------------------4--------------------------------------|

e|--------------------------------------------------------------------------------|
B|--------------------------------------------------------------------------------|
G|--------------------------------------------------------------------------------|
D|---6--4h6--------------4--6-------4h6-------------4-----------------------------|
A|-------------------6-------------------------6----------------------------------|
E|---------------4-------------------------4--------------------------------------|

e|-------------------------------------------------------------------------------|
B|-------------------------------------------------------------------------------|
G|-------------------------------------------------------------------------------|
D|----7----6h7-------------6---7-----6h7---------------6--7----------------------|
A|---------------------7---------------------------7-----------------------------|
E|-----------------5--------------------------5----------------------------------|

e|-------------------------------------------------------------------------------|
B|-------------------------------------------------------------------------------|
G|-------------------------------------------------------------------------------|
D|----7----6h7-------------6---7-----6h7----------------6--7---------------------|
A|---------------------7---------------------------7-----------------------------|
E|-----------------5--------------------------5----------------------------------|

e|--------------------------------------------------------------------------------|
B|--------------------------------------------------------------------------------|
G|--------------------------------------------------------------------------------|
D|---6--4h6---------------4--6-------4h6------------4-----------------------------|
A|-------------------6-------------------------6----------------------------------|
E|---------------4-------------------------4--------------------------------------|

e|-----------------------------------------------------------------------------|
B|-----------------------------------------------------------------------------|
G|-----------------------------------------------------------------------------|
D|-----------------------------------------------------------------------------|
A|-----------------------------------------------------------------------------|
E|---------9/4---then mute for 1st half of verse ------------------------------|

e|------------------------------------------------------------------------------|
B|------------------------------------------------------------------------------|
G|------------------------------------------------------------------------------|
D|-----------2----------------------------1-1-1---------------------------------|
A|---4--4----------------------------4-----------4------------------------------|
E|---------------4-------------4--4------------------2-2-2-4--------------------|

e|-----------------------------------------------------------------------------|
B|-----------------------------------------------------------------------------|
G|-----------------------------------------------------------------------------|
D|---------2-------------------------2-2-2-------------------------------------|
A|---4-4-------------------------4-----------4--2-2-2--------------------------|
E|-------------4------------4-4---------------------------4--------------------|

e|------------------------------------------------------------------------------|
B|------------------------------------------------------------------------------|
G|------------------------------------------------------------------------------|
D|-----------2----------------------------1-1-1---------------------------------|
A|---4--4----------------------------4-----------4------------------------------|
E|---------------4-------------4--4------------------2-2-2-4--------------------|

e|-----------------------------------------------------------------------------|
B|-----------------------------------------------------------------------------|
G|-----------------------------------------------------------------------------|
D|---------2-------------------------2-2-2-------------------------------------|
A|---4-4-------------------------4-----------4--2-2-2--------------------------|
E|-------------4------------4-4---------------------------4--------------------|

Pre-chorus
e|---------------------------------------------------------------------------------|
B|---------------------------------------------------------------------------------|
G|---------------------------------------------------------------------------------|
D|---------------------------------------------------------------------------------|
A|-----4-----------------------7----------------4---------7------------------------|
E|-----2-----------------------5----------------2---------5------------------------|

Chorus
e|---------------------------------------------------------------------------------|
B|---------------------------------------------------------------------------------|
G|---------------------------------------------------------------------------------|
D|---6--4h6---------------4--6-------4h6-------------4-----------------------------|
A|-------------------6-------------------------6-----------------------------------|
E|---------------4-------------------------4---------------------------------------|

e|-------------------------------------------------------------------------------|
B|-------------------------------------------------------------------------------|
G|-------------------------------------------------------------------------------|
D|---2---1h2-------------1--2----1h2---------------1-----------------------------|
A|-------------------2-------------------------2---------------------------------|
E|---------------0------------------------0--------------------------------------|

e|-------------------------------------------------------------------------------|
B|-------------------------------------------------------------------------------|
G|-------------------------------------------------------------------------------|
D|----7----6h7------------6---7-----6h7---------------6--7-----------------------|
A|---------------------7---------------------------7-----------------------------|
E|-----------------5--------------------------5----------------------------------|

e|-------------------------------------------------------------------------------|
B|-------------------------------------------------------------------------------|
G|-------------------------------------------------------------------------------|
D|---6--4h6--------------4--6-------4h6------------4-----------------------------|
A|-------------------6-------------------------6---------------------------------|
E|---------------4-------------------------4-------------------------------------|

e|-------------------------------------------------------------------------------|
B|-------------------------------------------------------------------------------|
G|-------------------------------------------------------------------------------|
D|---6--4h6-------------4--6-------4h6-------------4-----------------------------|
A|-------------------6-------------------------6---------------------------------|
E|---------------4-------------------------4-------------------------------------|

e|-------------------------------------------------------------------------------|
B|-------------------------------------------------------------------------------|
G|-------------------------------------------------------------------------------|
D|----7----6h7-------------6---7-----6h7---------------6--7----------------------|
A|---------------------7---------------------------7-----------------------------|
E|-----------------5--------------------------5----------------------------------|

e|-------------------------------------------------------------------------------|
B|-------------------------------------------------------------------------------|
G|-------------------------------------------------------------------------------|
D|----7----6h7------------6---7-----6h7---------------6--7-----------------------|
A|---------------------7---------------------------7-----------------------------|
E|-----------------5--------------------------5----------------------------------|

e|-------------------------------------------------------------------------------|
B|-------------------------------------------------------------------------------|
G|-------------------------------------------------------------------------------|
D|---6--4h6--------------4--6-------4h6-----------4------------------------------|
A|-------------------6-------------------------6---------------------------------|
E|---------------4-------------------------4-------------------------------------|


e|---------------------------------------------------------------------------------|
B|---------------------------------------------------------------------------------|
G|---------------------------------------------------------------------------------|
D|--11----9h11---------------9----11--9h11------------------9----------------------|
A|-----------------------11----------------------------11--------------------------|
E|-------------------9-----------------------------9-------------------------------|


e|-------------------------------------------------------------------------------|
B|-------------------------------------------------------------------------------|
G|-------------------------------------------------------------------------------|
D|--11---9h11---------------9---11-----------------------------------------------|
A|----------------------11-------------------------------------------------------|
E|------------------9--------------------12-11--7--9--4--------------------------|

e|---------------------------------------------------------------------------------|
B|---------------------------------------------------------------------------------|
G|---------------------------------------------------------------------------------|
D|--11----9h11----------------9----11--9h11-----------------9----------------------|
A|-----------------------11----------------------------11--------------------------|
E|-------------------9-----------------------------9-------------------------------|

e|---------------------------------------------------------------------------------|
B|---------------------------------------------------------------------------------|
G|---------------------------------------------------------------------------------|
D|--11----9h11---------------9----11--9h11------------------9----------------------|
A|-----------------------11----------------------------11--------------------------|
E|-------------------9-----------------------------9-------------------------------|

Guitar 1 repeats while guitar 2 plays with fast picking:
e|---/13----------/11---------/10-----/8-----/8------/10----/11--effects-------|
B|-----------------------------------------------------------------------------|
G|-----------------------------------------------------------------------------|
D|-----------------------------------------------------------------------------|
A|-----------------------------------------------------------------------------|
E|-----------------------------------------------------------------------------|

Chorus
e|-------------------------------------------------------------------------------|
B|-------------------------------------------------------------------------------|
G|-------------------------------------------------------------------------------|
D|---6--4h6--------------4--6-------4h6------------4-----------------------------|
A|-------------------6-------------------------6---------------------------------|
E|---------------4-------------------------4-------------------------------------|

e|-------------------------------------------------------------------------------|
B|-------------------------------------------------------------------------------|
G|-------------------------------------------------------------------------------|
D|---2---1h2------------1--2----1h2----------------1-----------------------------|
A|-------------------2-------------------------2---------------------------------|
E|---------------0------------------------0--------------------------------------|

e|-------------------------------------------------------------------------------|
B|-------------------------------------------------------------------------------|
G|-------------------------------------------------------------------------------|
D|----7----6h7-------------6---7-----6h7---------------6--7----------------------|
A|---------------------7---------------------------7-----------------------------|
E|-----------------5--------------------------5----------------------------------|

e|-------------------------------------------------------------------------------|
B|-------------------------------------------------------------------------------|
G|-------------------------------------------------------------------------------|
D|---6--4h6--------------4--6-------4h6------------4-----------------------------|
A|-------------------6-------------------------6---------------------------------|
E|---------------4-------------------------4-------------------------------------|

e|-------------------------------------------------------------------------------|
B|-------------------------------------------------------------------------------|
G|-------------------------------------------------------------------------------|
D|---6--4h6--------------4--6-------4h6------------4-----------------------------|
A|-------------------6-------------------------6---------------------------------|
E|---------------4-------------------------4-------------------------------------|

e|-------------------------------------------------------------------------------|
B|-------------------------------------------------------------------------------|
G|-------------------------------------------------------------------------------|
D|----7----6h7-------------6---7-----6h7---------------6--7----------------------|
A|---------------------7---------------------------7-----------------------------|
E|-----------------5--------------------------5----------------------------------|

e|-------------------------------------------------------------------------------|
B|-------------------------------------------------------------------------------|
G|-------------------------------------------------------------------------------|
D|----7----6h7-------------6---7-----6h7---------------6--7----------------------|
A|---------------------7---------------------------7-----------------------------|
E|-----------------5--------------------------5----------------------------------|

e|-------------------------------------------------------------------------------|
B|-------------------------------------------------------------------------------|
G|-------------------------------------------------------------------------------|
D|---6--4h6--------------4--6-------4h6------------4-----------------------------|
A|-------------------6-------------------------6---------------------------------|
E|---------------4-------------------------4-------------------------------------|

Guitar 2- fast picking
e|--8----/10---/11--/13------/8-----/10---/11--/13-----------------------------|
B|-----------------------------------------------------------------------------|
G|-----------------------------------------------------------------------------|
D|-----------------------------------------------------------------------------|
A|-----------------------------------------------------------------------------|
E|-----------------------------------------------------------------------------|

e|--13--------------16-----effects-----------------------------------------------|
B|--------13---------------------------------------------------------------------|
G|-------------------------------------------------------------------------------|
D|-------------------------------------------------------------------------------|
A|-------------------------------------------------------------------------------|
E|-------------------------------------------------------------------------------|

Please give me a good rating and any feedback if you find mistakes.
Suggest correction
Creating personal tab
Creating personal tab
You can edit any tab online and save it as your Personal.

You can edit, replace or remove any tab part or add personal notes – all changes will be seen only by you.

Personal tabs can be accessed anytime from any device, even offline.
Learn more »
comments
print report bad tab
1 comment total.
0 reply
Stoofbird11 86 May 13, 2009 03:12 PM

This is my favorite song by Thrice! Too bad it's kinda hard to find. Good job! Do you think you could make chords out of it? That would be the best!

guest
You may want to rate the tab now too:
select rating
Wanna post a correction for this tab? Suggest correction