Oops, an error
Loading. Please wait.

Moving Mountains intro tab

version 1
version 1

Intro

Whole song

Interactive

by Thrice
8,444 views 1 this week
2 commentsread comments
1 2 3 4 5
x 5
add to favorites
×
Save as Personal and add changes to this tab that will be seen only by you. Learn more ›
×
You can save this tab as Personal to edit and correct it or add notes. All changes will be seen only by you. Learn more »
launch autoscroll
font size
0
reset
how to read this tab
guitar tuner
edit
Autoscroll
slow
fast
+/-
esc
set tempo
stop
-------------------------------------------------------------------------------
                             Moving Mountains- Thrice
-------------------------------------------------------------------------------

Tabbed by:Largebehind
Tuning: D (DGCFAD)
Hey guys, I realise this tab probably isn't right but I'm new to this business so go 
I watched a video of them play this and so I tabbed this the best I could. So enjoy :)

This sort of pattern is repeated through the song whilst Dustin sings over the top.

e|---------------0---0-------------------------------------0---------------|
B|----1----1-----0h1-0----8---------8-8--0------1-----1----0h1----8-8-8----|
G|-2-------2---2--------9-----9---9---9--0----2-------2---2-------9-9-9----|
D|------------------------------------7--0------------------------7-7-7----|
A|0------0----0--------0-----0--7-0----------0------0----0-----------------|
E|----0----------------------------------------0---------------------------|

            
            
Suggest correction
Creating personal tab
Creating personal tab
You can edit any tab online and save it as your Personal.

You can edit, replace or remove any tab part or add personal notes – all changes will be seen only by you.

Personal tabs can be accessed anytime from any device, even offline.
Learn more »
comments
print report bad tab
2 comments total.
+2 reply
CaptnOats10101 51 Jan 20, 2010 07:40 AM

the chords are definitely right! the pattern maybe not so much, but i was just messing around with this tab and listening to the song n i totally figured it out!

thanx dude!

0 reply
Tomozaurus 230 Jan 20, 2010 11:46 AM

Yeah, it sounds really good when tweaked a bit.

guest
You may want to rate the tab now too:
select rating
Wanna post a correction for this tab? Suggest correction