Oops, an error
Loading. Please wait.

Red Sky Acoustic tab

version 2
version 2

Whole song

Interactive

by Thrice
14,744 views 1 this week
7 commentsread comments
1 2 3 4 5
x 10
add to favorites
×
Save as Personal and add changes to this tab that will be seen only by you. Learn more ›
×
You can save this tab as Personal to edit and correct it or add notes. All changes will be seen only by you. Learn more »
launch autoscroll
font size
0
reset
how to read this tab
guitar tuner
edit
Autoscroll
slow
fast
+/-
esc
set tempo
stop
Song: Red Sky (Acoustic)
Band: Thrice
Album: Red Sky EP
-Standard Tuning-

This is a really easy song and it’s really fun to play
Thrice is an amazing band and Dustin has an unbelievable voice

Capo on the 1st Fret

Intro/Verse
         Am                           G
e-----------------------|-----------------3--|
B------------1----------|-----------------3--|
D------------2----------|--------------------| (x4)twice for intro and twice for verse
G-------2---------------|--------------------|
A---0-------------------|----------2---------|
E-----------------------|-------3------------|

I know what lies beneath.  I’ve seen the flash of teeth

        F                             Am                           G
e----------------------|------------------------|-----------------3--------|
B----------1-----------|------------1-----------|-----------------3--------|
D----------2-----------|------------2-----------|--------------------------|
G----------------------|-------2----------------|--------------------------|
A------3---------------|---0--------------------|----------2---------------|
E---1------------------|------------------------|-------3------------------|

Conspiring with the reef to sink our ship


              Am                           G
e------------------------|-----------------3-----------|
B------------1-----------|-----------------3-----------|
D------------2-----------|-----------------------------|     (x2)
G-------2----------------|-----------------------------|
A---0--------------------|----------2------------------|
E------------------------|-------3---------------------|

The wind’s a cheating wife.  Her tongue a thirsty knife


       F                               Am                           G
e----------------------|------------------------|-----------------3--------|
B----------1-----------|------------1-----------|-----------------3--------|
D----------2-----------|------------2-----------|--------------------------|
G----------------------|-------2----------------|--------------------------|
A------3---------------|---0--------------------|----------2---------------|
E---1------------------|------------------------|-------3------------------|

And she could take your life with one good kiss


Chorus

                   F                                 Am                    
e--------1-1-1-1-1-1-1-1----------|------------0-0-0-0-0-0-0-0----------|
B--------1-1-1-1-1-1-1-1----------|------------1-1-1-1-1-1-1-1----------|
D--------2-2-2-2-2-2-2-2----------|------------2-2-2-2-2-2-2-2----------|
G--------3-3-3-3-3-3-3-3----------|------------2-2-2-2-2-2-2-2----------|
A--------3-3-3-3-3-3-3-3----------|------------0-0-0-0-0-0-0-0----------|
E--------1-1-1-1-1-1-1-1----------|------------0-0-0-0-0-0-0-0----------|

Can you see the sky turn red as morning’s light breaks over me

                                                                         
                F                                    Am                       
e--------1-1-1-1-1-1-1-1----------|------------0-0-0-0-0-0-0-0----------|---------0-0-0-0-0-0-0-0-0-0-0-0-0-0-0-0--|
B--------1-1-1-1-1-1-1-1----------|------------1-1-1-1-1-1-1-1----------|--------3-3-3-3-3-3-3-3-3-3-3-3-3-3-3-3---|
D--------2-2-2-2-2-2-2-2----------|------------2-2-2-2-2-2-2-2----------|--------1-1-1-1-1-1-1-1-1-1-1-1-1-1-1-1---|
G--------3-3-3-3-3-3-3-3----------|------------2-2-2-2-2-2-2-2----------|--------2-2-2-2-2-2-2-2-2-2-2-2-2-2-2-2---|
A--------3-3-3-3-3-3-3-3----------|------------0-0-0-0-0-0-0-0----------|--------2-2-2-2-2-2-2-2-2-2-2-2-2-2-2-2---|
E--------1-1-1-1-1-1-1-1----------|------------0-0-0-0-0-0-0-0----------|---------0-0-0-0-0-0-0-0-0-0-0-0-0-0-0-0--|

Know tonight we’ll make our bed at the bottom of the sea


Verse

              Am                           G
e------------------------|-----------------3-----------|
B------------1-----------|-----------------3-----------|
D------------2-----------|-----------------------------|     (x2)
G-------2----------------|-----------------------------|
A---0--------------------|----------2------------------|
E------------------------|-------3---------------------|

I know the ocean speaks, I’ve heard her call to me


              F                       Am                           G
e----------------------|------------------------|-----------------3--------|
B----------1-----------|------------1-----------|-----------------3--------|
D----------2-----------|------------2-----------|--------------------------|
G----------------------|-------2----------------|--------------------------|
A------3---------------|---0--------------------|----------2---------------|
E---1------------------|------------------------|-------3------------------|

And smiling in my dreams she whispers this


Chorus
                 F                                   Am
e--------1-1-1-1-1-1-1-1----------|------------0-0-0-0-0-0-0-0----------|
B--------1-1-1-1-1-1-1-1----------|------------1-1-1-1-1-1-1-1----------|
D--------2-2-2-2-2-2-2-2----------|------------2-2-2-2-2-2-2-2----------|        (x2)
G--------3-3-3-3-3-3-3-3----------|------------2-2-2-2-2-2-2-2----------|
A--------3-3-3-3-3-3-3-3----------|------------0-0-0-0-0-0-0-0----------|
E--------1-1-1-1-1-1-1-1----------|------------0-0-0-0-0-0-0-0----------|

Can you see the sky turn red as morning’s light breaks over me

                                                                     
                F                                     Am
e--------1-1-1-1-1-1-1-1----------|------------0-0-0-0-0-0-0-0----------|---------0-0-0-0-0-0-0-0-0-0-0-0-0-0-0-0--|
B--------1-1-1-1-1-1-1-1----------|------------1-1-1-1-1-1-1-1----------|--------3-3-3-3-3-3-3-3-3-3-3-3-3-3-3-3---|
D--------2-2-2-2-2-2-2-2----------|------------2-2-2-2-2-2-2-2----------|--------1-1-1-1-1-1-1-1-1-1-1-1-1-1-1-1---|
G--------3-3-3-3-3-3-3-3----------|------------2-2-2-2-2-2-2-2----------|--------2-2-2-2-2-2-2-2-2-2-2-2-2-2-2-2---|
A--------3-3-3-3-3-3-3-3----------|------------0-0-0-0-0-0-0-0----------|--------2-2-2-2-2-2-2-2-2-2-2-2-2-2-2-2---|
E--------1-1-1-1-1-1-1-1----------|------------0-0-0-0-0-0-0-0----------|---------0-0-0-0-0-0-0-0-0-0-0-0-0-0-0-0--|

Know tonight we’ll make our bed at the bottom of the sea


                         F                                                     Am

e--------1-1-1-1-1-1-1-1----------|------------0-0-0-0-0-0-0-0----------|
B--------1-1-1-1-1-1-1-1----------|------------1-1-1-1-1-1-1-1----------|
D--------2-2-2-2-2-2-2-2----------|------------2-2-2-2-2-2-2-2----------|        (x2)
G--------3-3-3-3-3-3-3-3----------|------------2-2-2-2-2-2-2-2----------|
A--------3-3-3-3-3-3-3-3----------|------------0-0-0-0-0-0-0-0----------|
E--------1-1-1-1-1-1-1-1----------|------------0-0-0-0-0-0-0-0----------|

Look and see the sky turn red, like blood it covers over me


                           F                                                 Am
                                          Abdim/E
e-----1-1-1-1-1-1-1-1--------|------------0-0-0-0-0-0-0-0----------|------------0-0-0-0-0-0-0-0-0-0-0-0-0-0-0-0---|
B-----1-1-1-1-1-1-1-1--------|------------1-1-1-1-1-1-1-1----------|------------3-3-3-3-3-3-3-3-3-3-3-3-3-3-3-3---|
D-----2-2-2-2-2-2-2-2--------|------------2-2-2-2-2-2-2-2----------|------------1-1-1-1-1-1-1-1-1-1-1-1-1-1-1-1---|
G-----3-3-3-3-3-3-3-3--------|------------2-2-2-2-2-2-2-2----------|------------2-2-2-2-2-2-2-2-2-2-2-2-2-2-2-2---|
A-----3-3-3-3-3-3-3-3--------|------------0-0-0-0-0-0-0-0----------|------------2-2-2-2-2-2-2-2-2-2-2-2-2-2-2-2---|
E-----1-1-1-1-1-1-1-1--------|------------0-0-0-0-0-0-0-0----------|------------0-0-0-0-0-0-0-0-0-0-0-0-0-0-0-0---|

And soon the sea shall give up her dead, and raise an empire at the bottom of the sea


Outro

e------0-0-0-0-0-0-0-0-0-----|------0-0-0-0-0-0-0-0-0---------|
B------1-1-1-1-1-1-1-1-1-----|------0-0-0-0-0-0-0-0-0---------|
D------0-0-0-0-0-0-0-0-0-----|------0-0-0-0-0-0-0-0-0---------|
G------2-2-2-2-2-2-2-2-2-----|------2-2-2-2-2-2-2-2-2---------|
A------3-3-3-3-3-3-3-3-3-----|------2-2-2-2-2-2-2-2-2---------|
E------0-0-0-0-0-0-0-0-0-----|------0-0-0-0-0-0-0-0-0---------|

Sea (repeated like a million times)

-Fade out on the C-


PEACE, LOVE, AND ENTHALPY to all my homeboys

Suggest correction
Creating personal tab
Creating personal tab
You can edit any tab online and save it as your Personal.

You can edit, replace or remove any tab part or add personal notes – all changes will be seen only by you.

Personal tabs can be accessed anytime from any device, even offline.
Learn more »
comments
print report bad tab
7 comments total. Showing first comments.
0 reply
kryptonite22 925 Jun 01, 2006 04:35 AM

Brilliant tab, but listening to the version on the 'Red Sky'EP, I found it sounded better when I put the capo on the 1st fret if using standard tuningtherwise I assume you'd tune the guitar down a bit and put it on the 2nd. But for me, and for anyone trying to play this in standard tuning, the 1st fret is where it's at. Other than that, the tab's spot on so I gave it a 5.

0 reply
Capt. Maxzmus 10 Jan 13, 2007 08:54 AM

correct, this tab is awesome. 5 stars

0 reply
surfhaleysurf 160 Jan 21, 2007 08:44 AM

very nice tab. and you had the lyrics, bonus.

guest
You may want to rate the tab now too:
select rating
Wanna post a correction for this tab? Suggest correction