Oops, an error
Loading. Please wait.

Sea Change chords

version 1
version 1

Whole song

  • Both lead and rhythm parts arranged for one guitar.
  • No capo, simplified chords. Thanks to Fear The Gra... Show more
by Thrice
490 views 24 this week
no commentswrite comment
1 2 3 4 5
2 more votes to show rating
add to favorites
×
Save as Personal and add changes to this tab that will be seen only by you. Learn more ›
×
You can save this tab as Personal to edit and correct it or add notes. All changes will be seen only by you. Learn more »
launch autoscroll
font size
0
reset
transpose
0
reset
simplify chords
display chords
guitar tuner
edit
Autoscroll
slow
fast
+/-
esc
set tempo
stop
About this tab version
Both lead and rhythm parts arranged for one guitar. Was this info helpful? Yes No
Strumming Is this strumming pattern correct? Yes No
Whole song 135 bpm
1
&
2
&
3
&
4
&
5
&
6
&
7
&
8
&
Listen
Thrice
"Sea Change"

Standard tuning.


[Intro]

e|----------------|----------------|----------------|----------------|
B|----------------|----------------|----------------|----------------|
G|7-------7-------|7-------7-------|8---8---8---8---|8---8---8---8---|
D|--8-8-8---8-8-8-|--8-8-8---8-8-8-|--8---8---8---8-|--8---8---8---8-|
A|----------------|----------------|----------------|----------------|
E|----------------|----------------|----------------|----------------|
 |
e|----------------|----------------|----------------|----------------|
B|----------------|----------------|----------------|----------------|
G|----------------|----------------|5-5-5-5-5-5-5-5-|5-5-5-5-5-5-5-5-|
D|8-8-8-8-8-8-8-8-|8-8-8-8-8-8-8-8-|5-5-5-5-5-5-5-5-|5-5-5-5-5-5-5-5-|
A|8-8-8-8-8-8-8-8-|8-8-8-8-8-8-8-8-|3-3-3-3-3-3-3-3-|3-3-3-3-3-3-3-3-|
E|6-6-6-6-6-6-6-6-|6-6-6-6-6-6-6-6-|----------------|----------------|

                                                                      
e|----------------|----------------|----------------|----------------|
B|----------------|----------------|----------------|----------------|
G|7-------7-------|7-------7-------|10------10------|10------10------|
D|--8-8-8---8-8-8-|--8-8-8---8-8-8-|--8-8-8---8-8-8-|--8-8-8---8-8-8-|
A|----------------|----------------|----------------|----------------|
E|----------------|----------------|----------------|----------------|
 |
e|----------------|----------------|----------------|----------------|
B|----------------|----------------|----------------|----------------|
G|----------------|----------------|8-8-8-8-8-8-8-8-|8-8-8-8-8-8-8-8-|
D|5-5-5-5-5-5-5-5-|5-5-5-5-5-5-5-5-|8-8-8-8-8-8-8-8-|8-8-8-8-8-8-8-8-|
A|5-5-5-5-5-5-5-5-|5-5-5-5-5-5-5-5-|6-6-6-6-6-6-6-6-|6-6-6-6-6-6-6-6-|
E|3-3-3-3-3-3-3-3-|3-3-3-3-3-3-3-3-|----------------|----------------|


[Intro]

Ab   Cm7 
Gm   Ebsus2

[Verse 1]
   Ab                     Cm7  
We scoff and roll our eyes
            Gm                         Ebsus2 
Yeah, we've heard this all before in a different guise
      Ab                   Cm7  
These shrill alarmist fears
         Gm                       Ebsus2 
We don't deign to entertain them, covering our ears


[Chorus]
   Ab                               Cm7 
So where will we go when the waters threaten to wash us away?
    Gm                                Ebsus2
And all of our sons and our daughters wilt in the heat of the day?
Ab                          Cm7
I feel the sun draw nearer, I feel the sea start to rise
Gm                                Ebsus4
Who's looking back in the mirror? Why are they closing -
                           Ab
Why are they closing their eyes?


[Verse 2]
                       Cm7
Now that heavy curtain sways
        Gm                             Ebsus2
And the man who stands behind tries to give his name
             Ab                     Cm7  
So we ask ourselves, "Who stands to gain?"
         Gm                       Ebsus2
Soon our tired talking points are feeling awfully strange


[Chorus]
   Ab                               Cm7 
So where will we go when the waters threaten to wash us away?
    Gm                                Ebsus2
And all of our sons and our daughters wilt in the heat of the day?
Ab                          Cm7
I feel the sun draw nearer, I feel the sea start to rise
Gm                                Ebsus4
Who's looking back in the mirror? Why are they closing -
                           Ab
Why are they closing their eyes?

Cm7
Gm   Ebsus4
Ab   Cm7 
Gm   Ebsus4

[Chorus]
   Ab                               Cm7 
So where will we go when the waters threaten to wash us away?
    Gm                                Ebsus4
And all of our sons and our daughters wilt in the heat of the day?
Ab                          Cm7
I feel the sun draw nearer, I feel the sea start to rise
Gm                                Ebsus4
Who's looking back in the mirror? Why are they closing -
                           Ab
Why are they closing their eyes?

Cm7   Gm

[Outro]
Ebsus4                                      Ab
Why are we closing, why are we closing our eyes?

Cm7   Gm

Ebsus4                                      Ab
Why are we closing, why are we closing our eyes?

Cm7   Gm

Ebsus4                                      Ab
Why are we closing, why are we closing our eyes?

Cm7   Gm

Ebsus4                                      Ab
Why are we closing, why are we closing our eyes?

Suggest correction
Creating personal tab
Creating personal tab
You can edit any tab online and save it as your Personal.

You can edit, replace or remove any tab part or add personal notes – all changes will be seen only by you.

Personal tabs can be accessed anytime from any device, even offline.
Learn more »
Give kudos to tab author, rate the tab!
1 2 3 4 5
comments
print report bad tab
guest
You may want to rate the tab now too:
select rating
Wanna post a correction for this tab? Suggest correction