Oops, an error
Loading. Please wait.

Send Me An Angel Tab

version 1
version 1

Whole song

Interactive

12,359 views 1 this week
2 commentsread comments
1 2 3 4 5
worth learning
x 5
add to favorites
launch autoscroll
font size
0
reset
how to read this tab
guitar tuner
Autoscroll
slow
fast
+/-
esc
set tempo
stop
Help us to improve Ultimate-Guitar.com Take our survey!
×
Author
Intro/1st Verse:
D#|----------------1---1-0--|
A#|----3-5-3----------------|
F#|--2-------2---2---2------|
C#|0-----------3------------|
G#|-------------------------|
C#|-------------------------|


Little fill thing:
D#|------------------------------|
A#|------1h3-1---------5h6-5-----|
F#|----2-------2-----5-------5---|
C#|0-0-----------3-3-------------|
G#|------------------------------|
C#|------------------------------|

Verse:  (Same chord the whole time, you figure out strumming)
D#|-----------|
A#|-----------|
F#|-----------|
C#|-----------|
G#|---0-------|
C#|---0-------|
      .

Repeat fill thing

Part After Fill Thing:
D#|--------------------------------------------------------------------------|
A#|----5---5h6p5---5--????-------1h3-1---------5h6-5-------------------------|
F#|----------------------------2-------2-----5-------5-----------------------|
C#|0-0---0-------0---------0-0-----------3-3-----------5x--------------------|
G#|--------------------------------------------------------------------------|
C#|--------------------------------------------------------------------------|


Chorus:  (2x)
D#|------13-13-12-12-13-13-15-15-13-13-12h13p12------------------------------|
A#|11-11----------------------------------------13-13------------------------|
F#|--------------------------------------------------------------------------|
C#|--------------------------------------------------------------------------|
G#|--------------------------------------------------------------------------|
C#|--------------------------------------------------------------------------|

Chorus Cont\'d:  (2x)
D#|------13-13-12-12-13-13-15-15-13-13-12h13p12------------------------------|
A#|13-13----------------------------------------13-13------------------------|
F#|--------------------------------------------------------------------------|
C#|--------------------------------------------------------------------------|
G#|--------------------------------------------------------------------------|
C#|--------------------------------------------------------------------------|

Repeat Intro/1st Verse

Repeat Fill Thing

Repeat Part After Fill Thing

Repeat Chorus

Part Before Solo:
D#|---------------------------------------------------------------------------|
A#|----3-----1-----------------------3-----1-------------------------3-3-6-6--|
F#|--2-----2-----------------------2-----2------------------------2-2---------|
C#|0-----0-----0-2-3-0-2-3~--2~--0-----0-----0-2-3-0-2-3~--2--0-0-------------|
G#|---------------------------------------------------------------------------|
C#|---------------------------------------------------------------------------|


Part Before Solo Cont\'d:
D#|8-8--------------------|
A#|----8-8-6-5-6----------|
F#|-----------------------|
C#|--------------5--------|
G#|-----------------------|
C#|-----------------------|

Solo:
D#|14^-----14^--13-10-13~--12h13p12-crazy------------------------------------|
A#|---------------------------------------ass--------------------------------|
F#|-------------------------------------------run----------------------------|
C#|--------------------------------------------------------12~---12-14-15-15-|
G#|--------------------------------------------------------------------------|
C#|--------------------------------------------------------------------------|

D#|------------------------------15^-13-15^~---15^-13-22^~-----|
A#|------------------------------------------------------------|
F#|------------------------------------------------------------|
C#|------12-14-15-15-14----12~---------------------------------|
G#|---------------------15-------------------------------------|
C#|12-12-------------------------------------------------------|

Repeat Chorus

Chorus Cont\'d:  (You listen for changes)
D#|------------------|-----------------------------|
A#|------------------|-----------------------------|
F#|5/7-7-7-7-7-5-5-5-|--9/10-10-10-10-10-9-9-9-----|
C#|x-x-x-x-x-x-x-x-x-|--x--x--x--x--x--x-x-x-x-----|
G#|3/5-5-5-5-5-3-3-3-|--7/-8--8--8--8--8-7-7-7-----|
C#|------------------|-----------------------------|

Repeat Chorus

Ending:
D#|-------------------------------------------------------|
A#|----3-----1---------3-----1---------3-----1------------|
F#|--2-----2---------2-----2---------2-----2--------------|
C#|0-----0-----0-2-0-----0-----0-2-0-----0-----0-0x-------|
G#|-------------------------------------------------------|
C#|-------------------------------------------------------|


GUITAR 2\'S PARTS:
-----------------
Intro/1st Verse:  (You figure out strumming)
D#|--------------|
A#|--------------|
F#|--------------|
C#|--------------|
G#|---0----------|
C#|---0----------|
      .

Little Fill Thing:
D#|-------------------------------------|
A#|-------------------------------------|
F#|3-3-3-3-3-3-3-3-5-5-5-5-5-5-5-5------|
C#|3-3-3-3-3-3-3-3-5-5-5-5-5-5-5-5------|
G#|1-1-1-1-1-1-1-1-3-3-3-3-3-3-3-3------|
C#|-------------------------------------|

Verse:  (You figure out strumming)
D#|-------------|
A#|-------------|
F#|-------------|
C#|-------------|
G#|---0---------|
C#|---0---------|
      .

Repeat Little Fill thing

Next Part:
D#|-------------------------------------|
A#|-------------------------------------|
F#|-------------------------------------|
C#|0-0-0-0-0-0-0-0-0-0-0-0-0-0-0-0------|
G#|0-0-0-0-0-0-0-0-0-0-0-0-0-0-0-0------|
C#|0-0-0-0-0-0-0-0-0-0-0-0-0-0-0-0------|

Repeat Little Fill thing

Chorus:  (2x)
D#|---------------------------------------------------------------------------|
A#|---------------------------------------------------------------------------|
F#|3-3-3-3-3-3-3-3-3-3-3-3-5-5-5-5-3-3-3-3-3-3-3-3-3-3-3-3-5-5-5-5------------|
C#|3-3-3-3-3-3-3-3-3-3-3-3-5-5-5-5-3-3-3-3-3-3-3-3-3-3-3-3-5-5-5-5-0-0-0-0-0--|
G|1-1-1-1-1-1-1-1-1-1-1-1-3-3-3-3-1-1-1-1-1-1-1-1-1-1-1-1-3-3-3-3-0-0-0-0-0---|
C#|----------------------------------------------------------------0-0-0-0-0--|

Chorus Cont\'d:
D#|------------------------------------------------------------|
A#|------------------------------------------------------------|
F#|--------------5-5-5-5-------------------------5-5-5-5-------|
C#|0-0-0-0-0-0-0-5-5-5-5-0-0-0-0-0-0-0-0-0-0-0-0-5-5-5-5-------|
G#|0-0-0-0-0-0-0-3-3-3-3-0-0-0-0-0-0-0-0-0-0-0-0-3-3-3-3-------|
C#|0-0-0-0-0-0-0---------0-0-0-0-0-0-0-0-0-0-0-0---------------|

Next Verse:  (2x, but 2nd time just stay on 5th fret)
D#|--------------------------------------------------------------------------|
A#|--------------------------------------------------------------------------|
F-|--------------------------------------------------------------------------|
C#|--------------------------------------------------------------------------|
G#|5-5-5-5-5-5-5-5-5-5-5-5-5-5-5-5-5-5-5-5-5-5-5-5-5-5-5-5-3-3-3-3-----------|
C#|--------------------------------------------------------------------------|

Repeat Little Fill thing

Repeat Next Part

Repeat Little Fill Thing

Repeat Chorus

Part Before Solo:
D#|----------------------------------------------------------------------------|
A#|----------------------------------------------------------------------------|
F#|---------10-----9---------------------------------10-10-12-12-9-9-----------|
C#|-------7------7--------7------7~--5~----------7-8-----------------10-8-7----|
G#|0----8------8-----8-10---8-10---------8-10-10----------------------------8--|
C#|0---------------------------------------------------------------------------|


Solo:
D#|-----------------------------------------------------------|
A#|-----------------------------------------------------------|
F#|-----------------------------------------------------------|
C#|5~------3-3-3--5~------3-3-3--8~----------8~---------------|
G#|5~------3-3-3--5~------3-3-3--8~---8-8-8--8~----8-8-8------|
C#|5~------3-3-3--5~------3-3-3--8~---7-7-7--8~----7-7-7------|

Chorus:  (2x)
D#|--------------------------------------------------------------------------|
A#|--------------------------------------------------------------------------|
F#|--------------------------------------------------------------------------|
C#|5-5-5-5-5-5-5-5-5-5-5-5-3-3-3-3-5-5-5-5-5-5-5-5-5-5-5-5-3-3-3-3-----------|
G#|5-5-5-5-5-5-5-5-5-5-5-5-3-3-3-3-5-5-5-5-5-5-5-5-5-5-5-5-3-3-3-3-----------|
C#|5-5-5-5-5-5-5-5-5-5-5-5-3-3-3-3-5-5-5-5-5-5-5-5-5-5-5-5-3-3-3-3-----------|

Chorus Cont\'d:
D#|--------------------------------------------------------------------------|
A#|--------------------------------------------------------------------------|
F#|--------------------------------------------------------------------------|
C#|0-0-0-0-0-0-0-0-0-0-0-0-3-3-3-3-0-0-0-0-0-0-0-0-0-0-0-0-3-3-3-3-----------|
G#|0-0-0-0-0-0-0-0-0-0-0-0-3-3-3-3-0-0-0-0-0-0-0-0-0-0-0-0-3-3-3-3-----------|
C#|0-0-0-0-0-0-0-0-0-0-0-0-3-3-3-3-0-0-0-0-0-0-0-0-0-0-0-0-3-3-3-3-----------|

Chorus Cont\'d:
D#|------------------|---------------------------------------------------------|
A#|------------------|---------------------------------------------------------|
F#|5/7-7-7-7-7-5-5-5-|-----9----10-------7-------------------------------------|
C#|x-x-x-x-x-x-x-x-x-|-----x-----x-------x-------------------------------------|
G#|3/5-5-5-5-5-3-3-3-|-----7-----8-------5-------------------------------------|
C#|------------------|---------------------------------------------------------|

End on:
D#|--------------------------------------------------|
A#|--------------------------------------------------|
F#|7-7-7-7-7-7-7-7-9-9-9-9-9-9-9-9-7~--------7x------|
C#|x-x-x-x-x-x-x-x-x-x-x-x-x-x-x-x-x---------x-------|
G#|5-5-5-5-5-5-5-5-7-7-7-7-7-7-7-7-5~--------5x------|
C#|--------------------------------------------------|
Suggest correction
What's this?
You can suggest a correction to this tab. Community and Mods will review your correction and vote to approve or reject it.
comments
print report bad tab
2 comments total.
0 reply
Hoobadude1 64 wrote on January 11 2005, 12:00 am

are you sure the solo is right? thats like the only reason i looked up this tab, but it is a great song

0 reply
Orcane 64 wrote on February 8 2006, 07:33 pm

try harder... just doesnt sound right

guest
You may want to rate the tab now too:
select rating
Please do not post tabs as comments. Select "correction" instead!