Oops, an error
Loading. Please wait.

Stare At The Sun bass

version 2
version 2

Whole song

Interactive

by Thrice
15,053 views 18 this week
3 commentsread comments
1 2 3 4 5
x 5
add to favorites
×
Save as Personal and add changes to this tab that will be seen only by you. Learn more ›
×
You can save this tab as Personal to edit and correct it or add notes. All changes will be seen only by you. Learn more »
launch autoscroll
font size
0
reset
guitar tuner
edit
Autoscroll
slow
fast
+/-
esc
set tempo
stop
Author
Difficulty
Artist: Thrice
Song Title: Star At The Sun
CD: The Artist In The Ambulance (Album)

Tunning: EADG


Intro:
G|-----------------------------------|
D|-----------------------------------|
A|-33333---66666---------------------|
E|-----------------66666---44444-----|


Verse:
G|-8---5-7---8---5-7-------8---5-7-| x6
D|---5-----5---5-----5-8-----5-----|
A|-----------------------6---------|
E|---------------------------------|


Chorus:
G|----------------------------------------------|
D|----------------------------------------------|
A|-3-33-3-333-3-333-3-33--6-66-6-666-6-666-6-66-|
E|----------------------------------------------|

G|----------------------------------------------|
D|----------------------------------------------|
A|----------------------------------------------|
E|-6-66-6-666-6-666-6-66--4-44-4-444-4-444-4-44-|

G|----------------------------------------------|
D|----------------------------------------------|
A|-3-33-3-333-3-333-3-33--6-66-6-666-6-666-6-66-|
E|----------------------------------------------|

G|----------------------------------------------|
D|----------------------------------------------|
A|----------------------------------------------|
E|-6-66-6-666-6-666-6-66--4-44-4-444-4-444-4-44-|


Verse:
G|-8---5-7---8---5-7-------8---5-7-| x6
D|---5-----5---5-----5-8-----5-----|
A|-----------------------6---------|
E|---------------------------------|

Chorus:
G|----------------------------------------------|
D|----------------------------------------------|
A|-3-33-3-333-3-333-3-33--6-66-6-666-6-666-6-66-|
E|----------------------------------------------|

G|----------------------------------------------|
D|----------------------------------------------|
A|----------------------------------------------|
E|-6-66-6-666-6-666-6-66--4-44-4-444-4-444-4-44-|

G|----------------------------------------------|
D|----------------------------------------------|
A|-3-33-3-333-3-333-3-33--6-66-6-666-6-666-6-66-|
E|----------------------------------------------|

G|----------------------------------------------|
D|----------------------------------------------|
A|----------------------------------------------|
E|-6-66-6-666-6-666-6-66--4-44-4-444-4-444-4-44-|

G|----------------------------------------------|
D|----------------------------------------------|
A|-3-33-3-333-3-333-3-33--6-66-6-666-6-666-6-66-|
E|----------------------------------------------|

G|----------------------------------------------|
D|----------------------------------------------|
A|----------------------------------------------|
E|-6-66-6-666-6-666-6-66--4-44-4-444-4-444-4-44-|

G|----------------------------------------------|
D|----------------------------------------------|
A|-3-33-3-333-3-333-3-33--6-66-6-666-6-666-6-66-|
E|----------------------------------------------|

G|----------------------------------------------|
D|----------------------------------------------|
A|----------------------------------------------|
E|-6-66-6-666-6-666-6-66--4-44-4-444-4-444-4-44-|

G|----------------------------------------------|
D|----------------------------------------------|
A|----------------------------------------------|
E|----4---------4---------4---------------------|

Im pretty sure that's how it goes, it was REALY hard 2 hear the bass line with my 
and terrible recording of the song.
Suggest correction
Creating personal tab
Creating personal tab
You can edit any tab online and save it as your Personal.

You can edit, replace or remove any tab part or add personal notes – all changes will be seen only by you.

Personal tabs can be accessed anytime from any device, even offline.
Learn more »
comments
print report bad tab
3 comments total.
0 reply
punkrockelite 30 Aug 31, 2007 08:58 PM

great tab dude! its played in drop c tho... but great non the less! :D

0 reply
Bass Patriot 156 Oct 28, 2007 09:46 PM

yeah... my bass guitar has pretty dodgy strings tho... i couldnt go down 2 drop c. i had to find a way to play it in standard tuning.

0 reply
kfilly20 10 May 30, 2008 10:04 AM

damn good tab man, it kills my wrist to play but its way fun

guest
You may want to rate the tab now too:
select rating
Wanna post a correction for this tab? Suggest correction