Oops, an error
Loading. Please wait.

The Image Of The Invisible bass

version 1
version 1

Whole song

Interactive

by Thrice
2,070 views 1 this week
1 commentread comment
1 2 3 4 5
x 3
add to favorites
×
Save as Personal and add changes to this tab that will be seen only by you. Learn more ›
×
You can save this tab as Personal to edit and correct it or add notes. All changes will be seen only by you. Learn more »
launch autoscroll
font size
0
reset
guitar tuner
edit
Autoscroll
slow
fast
+/-
esc
set tempo
stop
-------------------------------------------------------------------------------
	             Image of the Invisible - Thrice
-------------------------------------------------------------------------------

Tabbed By : Daniel Gizinski
e-mail: dantheman1175@aol.com
Tuning:Drop D (Thrice plays it in Drop C- but I tabbed it out so you don't have to tune as far down)

Morse Code
Introx2 (guitar only)

Versex2
We're more than carbon...
G|------------------------------------------------------------------------------------|
D|------------------------------------------------------------------------------------|
A|-10~----------------6~--------3~----------------------------------------------------|
E|------------------------------------------------------------------------------------|
Verse pt 2x2
We can't allow this...
G|----------------------------------------------------------------------------------|
D|----------------------------------------------------------------------------------|
A|-10-10-10-10-10-10-10-10-10-10-10-10-10-10-10-10-6-6-6-6-6-6-6-6-3-3-3-3-3-3-3-3--|
E|----------------------------------------------------------------------------------|
Chorusx4
We were all lost
G|----------------------------------|
D|----------------------------------|
A|----------------------------------|
E|-1-1-1-1-1-1-1-1-5-5-5-5-3-3-3-3--|
post chorus

G|------------------------------------------------------------------------------------|
D|------------------------------------------------------------------------------------|
A|---------------3-3------------------------------------------------------------------|
E|-1-1-1-1-5-5-5----------------------------------------------------------------------|
Verse two part one no bass.
Part twox2
So raise the banner- bend back your bow
G|-------------------------------------------------------------------------------|
D|-------------------------------------------------------------------------------|
A|-------------------------------------------------------------------------------|
E|-5~----------------------------------------------------------------------------|
Chorus.
No bass in interlude
Repeat Verse and chorus as neccesary.
Please rate and have a nice day.

| /  slide up
| \  slide down
| h  hammer-on
| p  pull-off
| ~  vibrato
| +  harmonic
| x  Mute note
===============================================================================

            
            
Suggest correction
Creating personal tab
Creating personal tab
You can edit any tab online and save it as your Personal.

You can edit, replace or remove any tab part or add personal notes – all changes will be seen only by you.

Personal tabs can be accessed anytime from any device, even offline.
Learn more »
Give kudos to tab author, rate the tab!
1 2 3 4 5
comments
print report bad tab
1 comment total.
0 reply
Crazy Drummer69 281 May 18, 2006 08:52 PM

Dude, this tab is totally off, I have the bass stem that they used in the final mix of the song, common man put some effort into it!

guest
You may want to rate the tab now too:
select rating
Wanna post a correction for this tab? Suggest correction