Oops, an error
Loading. Please wait.

The Weight tab

version 1
version 1

Whole song

  • Contains information relevant to tuning.

Interactive

by Thrice
184 views 12 this week
no commentswrite comment
1 2 3 4 5
1 last vote to show rating
add to favorites
×
Save as Personal and add changes to this tab that will be seen only by you. Learn more ›
×
You can save this tab as Personal to edit and correct it or add notes. All changes will be seen only by you. Learn more »
launch autoscroll
font size
0
reset
how to read this tab
guitar tuner
edit
Autoscroll
slow
fast
+/-
esc
set tempo
stop
About this tab version
Contains information relevant to tuning. Was this info helpful? Yes No
Thrice - The Weight
Tabbed this from ear and watching it being played live.


Have Fun :)

Tuning is in D standard
Guitar 1 - Dustin Kensrue
guitar 2 - Teppei Teranishi

Clean Crunch or light drive little bit more drive for the chorus and the bridge

[Intro/Verse 1 & 2]
Guitar 1 (Dustin)                   Listen for when this happens 
D|---------------------------------¦----------|     
A|---------------------------------¦----------|
F|---------------------------------¦----------|
C|-----7---5-5-5-------7---5-5-5---¦----------|
G|-----7---7-7-7-------7---7-7-7---¦------5---|
D|-0-0---0---------5-5---5---------¦--5h7-----|
listen for palm muting

Guitar 2 (Teppei)
D|---------------------------------------------------------------------------|
A|---------------------------------------------------------------------------|
F|-----------12-12-----------------------------------------------------------|
C|--12h14-14----14-14-----------12-------------------------------------------|
G|---------------------12h14-14----14-14-------------------------------------|
D|---------------------------------------------------------------------------|

[Fill]
Guitar 1 (Dustin)
D|--0---0--------------|
A|--0---0--------------|
F|--0---0--------------|
C|--4---2--------------|
G|--5---3--------------|
D|--x---x--------------|

Guitar 2 (Teppei)                Last two times
D|-----------------------12-12--¦----------------------12-21-------|
A|-15-15-15-15-15/13-13--12-12--¦-15-15-15-15-15/13-13-12-12-------|
F|-----------------------12-12--¦-14-14-14-14-14-14-14-12-12-------|
C|------------------------------¦-12-12-12-12-12-12-12-------------|
G|------------------------------¦----------------------------------|
D|------------------------------¦----------------------------------|

[Chorus]
Guitar 1 (Dustin)
D|---------------------------------------------------------------------------|
A|---------------------------------------------------------------------------|
F|---------------------------------------------------------------------------|
C|-9------------9--11-12-----------------------------------------------------|
G|-7-9-7-12-10--7--9--10-12--10----------------------------------------------|
D|---7-5-10-8------------10--8-----------------------------------------------|

Guitar 2 (Teppei)
D|-7-----7-----10-----8------------------------------------------------------|
A|-8-----7-----12-----10-----------------------------------------------------|
F|-9-----7-----11-----9------------------------------------------------------|
C|---------------------------------------------------------------------------|
G|---------------------------------------------------------------------------|
D|---------------------------------------------------------------------------|

[Bridge]
Guitar 1 (Dustin)
D|----------------------------------|
A|----------------------------------|
F|----------------------------------|
C|----------------------------------|
G|-7---5-x3-----7----2--------------|
D|-5---3--------5----0--------------|

Guitar 2 (Teppei)
D|---------------------------------------------------------------------------|
A|--------8-----10------8-------8-8-8-------8-8-8----------------------------|
F|--7h9-9---9-9----9-9-----9\7--7-7-7--9\7--7-7-7----------------------------|
C|---------------------------------------------------------------------------|
G|---------------------------------------------------------------------------|
D|---------------------------------------------------------------------------|

D|-----------------------------|
A|-------8---------------------|
F|-7h9-9---9-9-------7---------|x4
C|---------------7h9---9-9-----|
G|-----------------------------|
D|-----------------------------|

D|---------------------------------------------------------------------------|
A|--------8-----10------8-------8-8-8-------8-8-8----8~~---------------------|
F|--7h9-9---9-9----9-9-----9\7--7-7-7--9\7--7-7-7----9~~---------------------|
C|---------------------------------------------------------------------------|
G|---------------------------------------------------------------------------|
D|---------------------------------------------------------------------------|

[Verse 3]
Guitar 2 (Teppei)[use fingers to pluck strings]
D|----------------------|
A|----------------------|
F|--4-x8----7-x4--5-x4--|
C|--5-------9-----7-----|
G|----------------------|
D|----------------------|

[End On]
D|----0~--------------------------|
A|----0~--------------------------|
F|----x---------------------------|
C|----2~--------------------------|
G|----2~--------------------------|
D|----0~--------------------------|

D|----7~-------------------------|
A|----8~-------------------------|
F|----9~-------------------------|
C|-------------------------------|
G|-------------------------------|
D|-------------------------------|



************************************

| h  Hammer-on
| x  Dead note
| /  Slide up
| \  Slide down
| ~  Vibrato


************************************

            
            
Suggest correction
Creating personal tab
Creating personal tab
You can edit any tab online and save it as your Personal.

You can edit, replace or remove any tab part or add personal notes – all changes will be seen only by you.

Personal tabs can be accessed anytime from any device, even offline.
Learn more »
Give kudos to tab author, rate the tab!
1 2 3 4 5
comments
print report bad tab
guest
You may want to rate the tab now too:
select rating
Wanna post a correction for this tab? Suggest correction