Oops, an error
Loading. Please wait.

Treading Paper tab

by Thrice
49 views 1 this week
no commentswrite comment
1 2 3 4 5
3 more votes to show rating
add to favorites
×
Save as Personal and add changes to this tab that will be seen only by you. Learn more ›
×
You can save this tab as Personal to edit and correct it or add notes. All changes will be seen only by you. Learn more »
launch autoscroll
font size
0
reset
how to read this tab
guitar tuner
edit
Autoscroll
slow
fast
+/-
esc
set tempo
stop
About this tab version
Please note that Thrice plays this song with the guitar tuned down a half step and places a capo on first keeping the guitar in standard tuning. I've written it in standard tuning to keep it simple take the proper precautions to play with the song. Was this info helpful? Yes No
You'll have to feel out the rhythm because I ain't writing it.
If there is something that can be improved then feel free to say so.

[Dustin Intro and Verse 1]

e|----------------------------------------|
B|-1--3--2------1--1--3--2-------1--3--2--|
G|-2--2--2--x2--2--0--2--2---x1--2--2--2--|
D|-2--2--2------2--0--3--2-------2--2--2--|
A|-0--0--0------0--2-------------0--0--0--|
E|-----------------3----------------------|

[Teppei Intro and Verse 1]
e|------------------------------------|
B|------------------------------------|
G|----Teppei Rests during this verse--|
D|------------------------------------|
A|------------------------------------|
E|------------------------------------|
  
[Dustin Pre-Verse]

e|--------------------------------------------------------------------------------------|
B|--------------------------------------------------------------------------------------|
G|--------------------------------------------------------------------------------------|
D|--12-12-12-12-12p10----10--------12-10----------x2------------------------------------|
A|--------------------12----12-----------10-12------------------------------------------|
E|--------------------------------------------------------------------------------------|
^^Bend those 12s and on the D string and add some extra notes to make them more powerful

[Teppei Pre-Verse]
e|------------------------------------|
B|---1---------1----------3--2--------|
G|-----2--0h2----2--0h2---2--2----x4--|
D|------2---------2-------2--2--------|
A|---0---------0----------0--0--------|
E|------------------------------------|

[Dustin Verse 2]
e|------------------------------------|
B|------------------------------------|
G|----Dustin Rests during this verse--|
D|------------------------------------|
A|------------------------------------|
E|------------------------------------|

[Teppei Pre-Verse]
e|------------------------------------|
B|---1---------1----------3--2--------|
G|-----2--0h2----2--0h2---2--2----x2--|
D|------2---------2-------2--2--------|
A|---0---------0----------0--0--------|
E|------------------------------------|

e|---------------------------------------------------------------------------------------|
B|---1--------1---------3---2------------------------------------------------------------|
G|-----2--0h2---2--0h2--2---2------------------------------------------------------------|
D|------2--------2------3---2------------------------------------------------------------|
A|---0----------------------0------------------------------------------------------------|
E|------------3--------------------------------------------------------------------------|

e|---------------------------------------------------------------------------------------|
B|---------0h2------0h2---3--2-----------------------------------------------------------|
G|------------------------2--2-----------------------------------------------------------|
D|------------------------2--2-----------------------------------------------------------|
A|PM--0-0-0----0-0-0------0--0-----------------------------------------------------------|
E|---------------------------------------------------------------------------------------|

[Dustin Chorus]
e|---------------------------------------------------------------------------------|
B|-1--1--1-------------------------------------------------------------------------|
G|-2--0--0-------------------------------------------------------------------------|
D|-3--2--0----x4-------------------------------------------------------------------|
A|----3--2-------------------------------------------------------------------------|
E|-------3-------------------------------------------------------------------------|

[Teppei Chorus]
e|--10--8----12--10-------------------------------------------------------------------|
B|--10--10---12--12-------------------------------------------------------------------|
G|--10--9----12--12-------------------------------------------------------------------|
D|------------------------------------------------------------------------------------|
A|------------------------------------------------------------------------------------|
E|------------------------------------------------------------------------------------|

e|--10--8----12--10h12p10------------------------------------------------------------|
B|--10--10---12--12------------------------------------------------------------------|
G|--10--9----12--12------------------------------------------------------------------|
D|-----------------------------------------------------------------------------------|
A|-----------------------------------------------------------------------------------|
E|-----------------------------------------------------------------------------------|

[Dustin Verse 3]
e|---------------------------------------------------------------------------|
B|---------------------------------------------------------------------------|
G|---------------------------------------------------------------------------|
D|---------------------------------------------------------------------------|
A|--12x8--10x8--8x8--7x8-----------------------------------------------------|
E|---------------------------------------------------------------------------|

[Teppei Verse 3]
e|--------------------------------------------------------------------------------|
B|--------------------------------------------------------------------------------|
G|--------------------------------------------------------------------------------|
D|PM---7--------------------------------------------------------------------------|
A|PM---7--x several (For the first two bars)--------------------------------------|
E|PM---5--------------------------------------------------------------------------|

e|-------------------------------------------|
B|--------------------------6----------------|
G|--------------------------7----------------|
D|----7--5--3---7----x2-----7----(Ring out)--|
A|----7--5--3---7-----------5----------------|
E|----5--3--1---5----------------------------|

[Dustin Bridge]
e|-1-------1---------------3--|
B|-3---1---3-------1--1--1-0--|
G|-2---2---2---1---2--0--0-0--|
D|-----2-------2---3--2--0-0--|
A|-------------2------3--2-2--|
E|-------------0---------3-3--|
   Dm--Am-Dm---E---F--C--G-G

[Dustin Outro/Chorus]
e|--------------------------------------------------------------------------------|
B|-1--1--1------------------------------------------------------------------------|
G|-2--0--0------------------------------------------------------------------------|
D|-3--2--0------------------------------------------------------------------------|
A|----3--2------------------------------------------------------------------------|
E|-------3------------------------------------------------------------------------|

[Teppei Chorus]
e|--10--8----12--10-------------------------------------------------------------------|
B|--10--10---12--12-------------------------------------------------------------------|
G|--10--9----12--12-------------------------------------------------------------------|
D|------------------------------------------------------------------------------------|
A|------------------------------------------------------------------------------------|
E|------------------------------------------------------------------------------------|

e|--10--8----12--10h12p10------------------------------------------------------------|
B|--10--10---12--12------------------------------------------------------------------|
G|--10--9----12--12------------------------------------------------------------------|
D|-----------------------------------------------------------------------------------|
A|-----------------------------------------------------------------------------------|
E|-----------------------------------------------------------------------------------|

[End]
e|------------------------------------------------------------------------------|
B|------------------------------------------------------------------------------|
G|---5--------------------------------------------------------------------------|
D|---7--------------------------------------------------------------------------|
A|---7--------------------------------------------------------------------------|
E|---5--------------------------------------------------------------------------|



************************************

| x  Dead note
| p  Pull-off
| h  Hammer-on 

************************************

            
            
Suggest correction
Creating personal tab
Creating personal tab
You can edit any tab online and save it as your Personal.

You can edit, replace or remove any tab part or add personal notes – all changes will be seen only by you.

Personal tabs can be accessed anytime from any device, even offline.
Learn more »
Give kudos to tab author, rate the tab!
1 2 3 4 5
comments
print report bad tab
guest
You may want to rate the tab now too:
select rating
Wanna post a correction for this tab? Suggest correction