Oops, an error
Loading. Please wait.

Yellow Belly Tab

version 1
version 1

Whole song

Interactive

10,178 views 15 this week
1 commentread comment
1 2 3 4 5
worth learning
x 5
add to favorites
launch autoscroll
font size
0
reset
how to read this tab
guitar tuner
Autoscroll
slow
fast
+/-
esc
set tempo
stop
Help us to improve Ultimate-Guitar.com Take our survey!
×
Contributor
Difficulty
Tuning
joetinks 491
intermediate
D A D G B E
Thrice's new song 'Yellow Belly' from Major/Minor

I would play this in Drop D (DADGBE)

Tabbed by joetinks

[Intro/Main Riff]

e|--------------------------------------|
B|--------------------------------------|
G|--------------------------------------|
D|-------9-----9------------------------|
A|--------------------------------------|
D|---7-9---7-9---9---999-9-9-9-9-9------|

[Verse] (w/ main riff)

e|-----------------------------------|
B|-----------------------------------|
G|-----------------------------------|
D|--9-9-9-9-9-9-9-9-9-9-9-9-9-9-9-9--|
A|--9-9-9-9-9-9-9-9-9-9-9-9-9-9-9-9--|
D|--9-9-9-9-9-9-9-9-9-9-9-9-9-9-9-9--|

e|-----------------------------------|
B|-----------------------------------|
G|-----------------------------------|
D|--5-5-5-5-5-5-5-5-2-2-2-2-2-2-2-2--|
A|--5-5-5-5-5-5-5-5-2-2-2-2-2-2-2-2--|
D|--5-5-5-5-5-5-5-5-2-2-2-2-2-2-2-2--|

[Chorus]

e|-----------------------------------|
B|-----------------------------------|
G|-----------------------------------|
D|--7-7-7-9-9-9-9-----9-9-9-9-9-9-9--|
A|--7-7-7-9-9-9-9-----9-9-9-9-9-9-9--|
D|--7-7-7-9-9-9-9-----9-9-9-9-9-9-9--|


[Interlude/Solo]
(w/ Main Riff)

(tremelo pick)
e|--------------------------------------------------|
B|-12-12-12-12-12-12-12-12-16-16-16-16-16-16-16-16--|
G|--------------------------------------------------|
D|--------------------------------------------------|
A|--------------------------------------------------|
D|--------------------------------------------------|

e|--------------------------------------------------|
B|-17-17-17-17-17-17-17-17-16-16-16-16-16-16-16-16--|
G|--------------------------------------------------|
D|--------------------------------------------------|
A|--------------------------------------------------|
D|--------------------------------------------------|

[Bridge] (or just play the Verse chords)

e|--------------------------------------|
B|--------------------------------------|
G|--------------------------------------|
D|----9-------9----------5-------2------|
A|--------------------------------------|
D|--9-------9----------5-------2--------|

[Outro]

--[LEAD Outro]--
                                     (slides or hammer-ons work too)
e|--------------|------------------------------------------|
B|--------------|------------------------------------------|
G|--14-14-14-14-|-14v--14v--11v--11v--8v--8v--8b9b8-8b9b8--|
D|--------------|------------------------------------------|
A|--------------|------------------------------------------|
D|--------------|------------------------------------------|

e|-----------------------------------|
B|-----------------------------------|
G|--7v--7v--6v--6v--8v--8v--8v--8v---| (v = vibrato)
D|-----------------------------------|
A|-----------------------------------|
D|-----------------------------------|

--[RHYTHM Outro]--

e|----------|
B|----------|
G|----------|
D|--9-9-9-9-|
A|--9-9-9-9-|
D|--9-9-9-9-|

e|------------------------------------------------------------------|
B|------------------------------------------------------------------|
G|------------------------------------------------------------------|
D|-5-5-5-5-5-5-5-5-2-2-2-2-2-2-2-2-9-9-9-9-9-9-9-9-9-9-9-9-9-9-9-9--|
A|-5-5-5-5-5-5-5-5-2-2-2-2-2-2-2-2-9-9-9-9-9-9-9-9-9-9-9-9-9-9-9-9--|
D|-5-5-5-5-5-5-5-5-2-2-2-2-2-2-2-2-9-9-9-9-9-9-9-9-9-9-9-9-9-9-9-9--|


STRUCTURE:

Intro/Main Riff
Verse
Chorus
Interlude (Solo)
Bridge (Verse)
Chorus
Outro
Main Riff

End
Suggest correction What's this?
You can suggest a correction to this tab. Community and Mods will review your correction and vote to approve or reject it.
comments
print report bad tab
1 comment total.
0 reply
TacoxCore 104 wrote on July 30 2011, 11:27 pm

This song is in B standard. Nice try, though.

I want to post or [tab]
guest
You may want to rate the tab now too:
select rating
Please do not post tabs as comments. Select "correction" instead!