Oops, an error
Loading. Please wait.

Yellow Belly Tab

version 2
version 2

Whole song

Interactive

5,015 views 9 this week
no commentswrite comment
1 2 3 4 5
accurate
x 4
add to favorites
launch autoscroll
font size
0
reset
how to read this tab
guitar tuner
Tab Pro tools
  • play this tab
  • loop segment
  • change instrument
  • show fretboard
  • metronome
×
Best way to learn
"Yellow Belly"
Autoscroll
slow
fast
+/-
esc
set tempo
stop
Contributor
Difficulty
Tuning
intermediate
B F# B E G# C#
Thrice's new song 'Yellow Belly' from 'Major/Minor'

Tabbed by joetinks

Drop B (B,F#,B,E,G#,C) (I have also tabbed it out in Drop D [see other tab])


[Intro/Main Riff]

 c|-----------------------------------------------|
G#|-----------------------------------------------|
 E|-----------------------------------------------|
 B|---------12--------12--------------------------|
F#|-----------------------------------------------|
 B|---10-12--- 10-12-----0---000-12-12-12-12-12---|

[Verse] (w/ main riff)

 c|---------------------------------------------------|
G#|---------------------------------------------------|
 E|---------------------------------------------------|
 B|--12-12-12-12-12-12-12-12-12-12-12-12-12-12-12-12--|
F#|--12-12-12-12-12-12-12-12-12-12-12-12-12-12-12-12--|
 B|--12-12-12-12-12-12-12-12-12-12-12-12-12-12-12-12--|

 c|-----------------------------------|
G#|-----------------------------------|
 E|-----------------------------------|
 B|--8-8-8-8-8-8-8-8-5-5-5-5-5-5-5-5--|
F#|--8-8-8-8-8-8-8-8-5-5-5-5-5-5-5-5--|
 B|--8-8-8-8-8-8-8-8-5-5-5-5-5-5-5-5--|

[Chorus]

 C|-----------------------------------------|
G#|-----------------------------------------|
 E|-----------------------------------------|
 B|--10-10-10-12-12-12-0-----0-0-0-0-0-0-0--|
F#|--10-10-10-12-12-12-0-----0-0-0-0-0-0-0--|
 B|--10-10-10-12-12-12-0-----0-0-0-0-0-0-0--|


[Interlude/Solo]
(w/ Main Riff)

(tremelo pick)
 c|--------------------------------------------------|
G#|-15-15-15-15-15-15-15-15-19-19-19-19-19-19-19-19--|
 E|--------------------------------------------------|
 B|--------------------------------------------------|
F#|--------------------------------------------------|
 B|--------------------------------------------------|

 c|--------------------------------------------------|
G#|-20-20-20-20-20-20-20-20-19-19-19-19-19-19-19-19--|
 E|--------------------------------------------------|
 B|--------------------------------------------------|
F#|--------------------------------------------------|
 B|--------------------------------------------------|

[Bridge] (or just play the Verse chords)

 c|----------------------------------|
G#|----------------------------------|
 E|----------------------------------|
 B|----12-------12------8-------5----|
F#|----------------------------------|
 B|--12-------12-----8-------5-------|

[Outro]

--[LEAD Outro]--
                                     (slides or hammer-ons work too)
 c|--------------|--------------------------------------------------|
G#|--------------|--------------------------------------------------|
 E|--17-17-17-17-|-17v--17v--14v--14v--11v--11v--11b12b11-11b12b11--|
 B|--------------|--------------------------------------------------|
F#|--------------|--------------------------------------------------|
 B|--------------|--------------------------------------------------|

 c|-----------------------------------------|
G#|-----------------------------------------|
 E|--10v--10v--9v--9v--11v--11v--11v--11v---| (v = vibrato)
 B|-----------------------------------------|
F#|-----------------------------------------|
 B|-----------------------------------------|

--[RHYTHM Outro]--

 c|--------------|
G#|--------------|
 E|--------------|
 B|--12-12-12-12-| 
F#|--12-12-12-12-|
 B|--12-12-12-12-|

 c|------------------------------------------------------------------|
G#|------------------------------------------------------------------|
 E|------------------------------------------------------------------|
 B|-8-8-8-8-8-8-8-8-5-5-5-5-5-5-5-5-0-0-0-0-0-0-0-0-0-0-0-0-0-0-0-0--|
F#|-8-8-8-8-8-8-8-8-5-5-5-5-5-5-5-5-0-0-0-0-0-0-0-0-0-0-0-0-0-0-0-0--|
 B|-8-8-8-8-8-8-8-8-5-5-5-5-5-5-5-5-0-0-0-0-0-0-0-0-0-0-0-0-0-0-0-0--|


STRUCTURE:

Intro/Main Riff
Verse
Chorus
Interlude (Solo)
Bridge (Verse)
Chorus
Outro
Main Riff

End
comments
print report bad tab
I want to post or [tab]
guest
You may want to rate the tab now too:
select rating
Please do not post tabs as comments. Select "correction" instead!