Oops, an error
Loading. Please wait.

Beneath Dying Skies tab

version 1
version 1

Whole song

Interactive

5,550 views 6 this week
9 commentsread comments
1 2 3 4 5
x 10
add to favorites
×
Save as Personal and add changes to this tab that will be seen only by you. Learn more ›
×
You can save this tab as Personal to edit and correct it or add notes. All changes will be seen only by you. Learn more »
launch autoscroll
font size
0
reset
how to read this tab
guitar tuner
edit
Autoscroll
slow
fast
+/-
esc
set tempo
stop
Author
Difficulty
Band – Through the Eyes of the Dead
Album – The Scars of Ages E.P.
Song – Beneath Dying Skies
Tabbed by – Bryan H. and Ty B.

* - Palm mute
h –hammer on

Guitars 1 & 2

D|-----------------------------------------|
A|-----------------------------------------|
F|---------3---5---------------3---5-------|
C|-0---0-0-3---5--3-2--0---0-0-3---5---3-2-|
G|-0---0-0-1---3-------0---0-0-1---3-------|
C|-0---0-0-------------0---0-0-------------|
                             

Guitar 1

|-----------------------------------------|
|-----------------------------------------|
|---------3---5---------------3---5-------|
|-0---0-0-3---5--3-2--0---0-0-3---5---3-2-|
|-0---0-0-1---3-------0---0-0-1---3-------|
|-0---0-0-------------0---0-0-1-----------|
                                    Repeat 

Guitar 2
(in 16th notes or tremolo picking)
|---------------------------------|
|---------------------------------|
|---------------------------------|
|-0-0-0-0-8-8-8-8-7-7-7-7-5-5-5-5-|
|---------------------------------|
|---------------------------------|


|---------------------------------|
|---------------------------------|
|---------------------------------|
|-3-3-3-3-3-3-3-3-2-2-2-2-2-2-2-2-|
|---------------------------------|
|---------------------------------|


|---------------------------------|
|---------------------------------|
|---------------------------------|
|-0-0-0-0-8-8-8-8-7-7-7-7-5-5-7-7-|
|---------------------------------|
|---------------------------------|


|-----------------------------------------|
|-----------------------------------------|
|-----------------------------------------|
|-8-8-8-8-8-8-8-8-10-10-10-10-10-10-10-10-|
|-----------------------------------------|
|-----------------------------------------|


|---------------------------------|
|---------------------------------|
|---------------------------------|
|-0-0-0-0-8-8-8-8-7-7-7-7-5-5-5-5-|
|---------------------------------|
|---------------------------------|


|---------------------------------|
|---------------------------------|
|---------------------------------|
|-3-3-3-3-3-3-3-3-2-2-2-2-2-2-2-2-|
|---------------------------------|
|---------------------------------|


|---------------------------------|
|---------------------------------|
|---------------------------------|
|-0-0-0-0-8-8-8-8-7-7-7-7-5-5-7-7-|
|---------------------------------|
|---------------------------------|



|-----------------------------------------|
|-----------------------------------------|
|-----------------12-12-12-12-12-12-12-12-|
|-8-8-8-8-8-8-8-8-------------------------|
|-----------------------------------------|
|-----------------------------------------|

Guitars 1 & 2

|----------------------------------|
|----------------------------------|
|----------------------------------|
|----------------------------------|
|-5-0-7-0-8-0-7-0-10-0-8-0-7-0-8-0-|
|----------------------------------|
|
|
|-------------------------------|
|-------------------------------|
|-------------------------------|
|-------------------------------|
|-----7-0-8-0--------8-0-7-0-5--|
|-8-----------8---10------------|
				   Repeat 3x

|-----------------------------------|
|-----------------------------------|
|-----------------------------------|
|-----------------------------------|
|-5-5-7-7-8-8-7-7-10-10-8-8-7-7-8-8-|
|-----------------------------------|
|
|
|-----------------------------------|
|-----------------------------------|
|-----------------------------------|
|-----------------------------------|
|-----7-7-8-8-----------8-8-7-7-5-5-|
|-8-8---------8-8-10-10-------------|
					Repeat Once

Guitar 1

|--------------------------|
|--------------------------|
|--------------------------|
|--------------------------|
|-5--7--8--5--7--10--8--7--|
|--------------------------|
|
|
|-------------------------|
|-------------------------|
|-------------------------|
|-------------------------|
|-5--7--8--3--5--8--7--3--|
|-------------------------|
                Repeat Once
Guitar 2

|-------------------------|
|-------------------------|
|-------------------------|
|-3--5--7--3--5--8--7--5--|
|-------------------------|
|-------------------------|
|
|
|-------------------------|
|-------------------------|
|-------------------------|
|-3--5--7--2--3--7--5--2--|
|-------------------------|
|-------------------------|

Guitar 1 & 2

|--------------------------|
|--------------------------|
|--------------------------|
|-0----0-0-0--0-0-0--0-0-0-|
|-0----0-0-0--0-0-0--0-0-0-|
|-0----0-0-0--0-0-0--0-0-0-|
  *    * * *  * * *  * * *
|--------------------------|
|--------------------------|
|--------------------------|
|-0-0-0--0-0-0--0-0-0------|
|-0-0-0--0-0-0--0-0-0------|
|-0-0-0--0-0-0--0-0-0------|
  * * *  * * *  * * *Repeat 2x

Guitar 1
|--------------------------|
|--------------------------|
|--------------------------|
|-0-0-0--0-0-0--0-0-0------|
|-0-0-0--0-0-0--0-0-0------|
|-0-0-0--0-0-0--0-0-0------|
  * * *  * * *  * * *Repeat 7x              
Guitar 2

|---------------------------------|
|---------------------------------|
|---------------------------------|
|---------8-7-----8-8-7-7-5-5-7-7-|
|-5-5-8-7-----8-7-----------------|
|---------------------------------|
				    Repeat Once

|---------------------------------|
|---------------------------------|
|---------------------------------|
|---------8-7-----8-8-7-7-5-5-7-7-|
|-----8-7-----8-7-----------------|
|-8-8-----------------------------|


|-----------------------------------|
|-----------------------------------|
|-----------------------------------|
|-----------8-7-----8-8-7-7-5-5-7-7-|
|-------8-7-----8-7-----------------|
|-10-10-----------------------------|

Guitar 1

|------------------------------|
|------------------------------|
|------------------------------|
|-0------0------8------10------|
|-0------0------8------10------|
|-0------0------8------10------|

Guitar 2

|-------------------------------|
|-------------------------------|
|-------------------------------|
|-----8---7-------8---7---7h8---|
|-------------------------------|
|-0-0---0-----0-0---0---0-------|
				Repeat once

|-------------------------------|
|-------------------------------|
|-------------------------------|
|-----8---7-------8---7---7h8---|
|-------------------------------|
|-8-8---8-----8-8---8---8-------|


|--------------------------------------|
|--------------------------------------|
|--------------------------------------|
|-------8----7----------8----7---7h8---|
|--------------------------------------|
|-10-10---10------10-10---10---10------|

Guitars 1 & 2

|-------------------------------------|
|-------------------------------------|
|-------------------------------------|
|-0--0--0--0-0-0--0--0--0-0-7-8-5-7-3-|
|-0--0--0--0-0-0--0--0--0-0-----------|
|-0--0--0--0-0-0--0--0--0-0-----------|
*  *  * * *  *  *  * *  
  
|---------------------------------|
|---------------------------------|
|---------------------------------|
|-8--8-8-8-3-5-10--10-10-10-5-3-2-|
|-8--8-8-8-----10--10-10-10-------|
|-8--8-8-8-----10--10-10-10-------|
     * * *          *  *  *Repeat 3x

|--------------------------|
|--------------------------|
|--------------------------|
|-0--0--0--0--0------------|
|-0--0--0--0--0------------|
|-0--0--0--0--0------------|
  *  *  *  *  *   Repeat 2x

|--------------------------|
|--------------------------|
|--------------------------|
|-0--0--0--0--0------------|
|-0--0--0--0--0------------|
|-0--0--0--0--0------------|
*  *  *  *     

|--------------------------------|
|--------------------------------|
|--------------------------------|
|-0-0-0-0-0-0-0-0-0--------------|
|-0-0-0-0-0-0-0-0-0--------------|
|-0-0-0-0-0-0-0-0-0--------------|
  * * * * * * * * *     Repeat 3x

Guitar 1
|--------------------------------|
|--------------------------------|
|--------------------------------|
|-0-0-0-0-0-0-0-0-0--------------|
|-0-0-0-0-0-0-0-0-0--------------|
|-0-0-0-0-0-0-0-0-0--------------|
  * * * * * * * * *     Repeat 3x 
Guitar 2

|--------------------------------|
|--------------------------------|
|--------------------------------|
|-0-0-0-0-0-0-0-0-0---0-0--0--0--|
|-0-0-0-0-0-0-0-0-0---0-0--0--0--|
|-0-0-0-0-0-0-0-0-0---0-0--0--0--|
  * * * * * * * * *     Repeat 3x  

Guitar 1 & 2

|-----------------------------|
|-----------------------------|
|-----------------------------|
|-0-------------0-------------|
|-0-------------0-------------|
|-0--0-0-0-1-4--0--0-0-0-1-4--|
  *              * 

|----------------------------|
|----------------------------|
|----------------------------|
|-0--------------------------|
|-0--------------------------|
|-0--0-0-0-1-4--0-1-4—0-1-5--|
				Repeat 4x

|---------------------------------|
|---------------------------------|
|---------------------------------|
|---------------------------------|
|---------------------------------|
|-0-0-0-0-0-0-0-0-4-4-4-4-4-4-4-4-|


|---------------------------------|
|---------------------------------|
|---------------------------------|
|---------------------------------|
|---------------------------------|
|-1-1-1-1-1-1-1-1-5-5-5-5-5-5-5-5-|


|---------------------------------|
|---------------------------------|
|---------------------------------|
|---------------------------------|
|---------------------------------|
|-0-0-0-0-0-0-0-0-4-4-4-4-4-4-4-4-|


|-----------------------------------|
|-----------------------------------|
|-----------------------------------|
|-----------------4--1--0--5--1--0--|
|-----------------4--1--0--5--1--0--|
|-1-1-1-1-1-1-1-1-4—-1--0--5--1--0--|


|---------------------------------|
|---------------------------------|
|---------------------------------|
|---------------------------------|
|---------------------------------|
|-0-0-0-0-0-0-0-0-4-4-4-4-4-4-4-4-|


|---------------------------------|
|---------------------------------|
|---------------------------------|
|---------------------------------|
|---------------------------------|
|-1-1-1-1-1-1-1-1-5-5-5-5-5-5-5-5-|


|---------------------------------|
|---------------------------------|
|---------------------------------|
|---------------------------------|
|---------------------------------|
|-0-0-0-0-0-0-0-0-4-4-4-4-4-4-4-4-|

|-----------------------------------|
|-----------------------------------|
|-----------------------------------|
|-----------------4--1--0--5--1--0--|
|-----------------4--1--0--5--1--0--|
|-1-1-1-1-1-1-1-1-4—-1--0--5--1--0--|


|-------------------|
|-------------------|
|-------------------|
|-4--1--0--5--1--0--|
|-4--1--0--5--1--0--|
|-4--1--0--5--1--0--|


|--------------------------------------------------|
|--------------------------------------------------|
|-------------------7-7-7--------------------------|
|-------0-0-0-7-7-7--------4-1-0-5-1-0-4-1-0-5-1-0-|
|--------------------------4-1-0-5-1-0-4-1-0-5-1-0-|
|-0-0-0--------------------4-1-0-5-1-0-4-1-0-5-1-0-|
|
|
|--------------------------------------------------|
|--------------------------------------------------|
|-------------------9-9-9--------------------------|
|-------0-0-0-7-7-7--------4-1-0-5-1-0-4-1-0-5-1-0-|
|--------------------------4-1-0-5-1-0-4-1-0-5-1-0-|
|-0-0-0--------------------4-1-0-5-1-0-4-1-0-5-1-0-|
								Repeat Once

|---------------------------|
|---------------------------|
|---------------------------|
|-4-1-0-5-1-0-4-1-0-5-1-0-0-|
|-4-1-0-5-1-0-4-1-0-5-1-0-0-|
|-4-1-0-5-1-0-4-1-0-5-1-0-0-|


* - Palm mute
h –hammer on

            
            
Suggest correction
Creating personal tab
Creating personal tab
You can edit any tab online and save it as your Personal.

You can edit, replace or remove any tab part or add personal notes – all changes will be seen only by you.

Personal tabs can be accessed anytime from any device, even offline.
Learn more »
comments
print report bad tab
9 comments total. Showing first comments.
0 reply
blackenedRUSH 10 Aug 14, 2006 06:29 PM

you had a little mistake on the intro but i'm sure you did it accidentally. other than that, it's friggin' nutz

0 reply
blackenedRUSH 10 Aug 15, 2006 06:03 AM

ooh you fixed it, never mind

0 reply
pyrobonez 87 May 09, 2007 11:44 AM

sounds good, if you could put the time tags on it it'd be easier to read but besides that it's great.

guest
You may want to rate the tab now too:
select rating
Wanna post a correction for this tab? Suggest correction