Oops, an error
Loading. Please wait.

Failure In The Flesh intro tab

version 1
version 1

Intro

Whole song

Interactive

3,603 views 1 this week
3 commentsread comments
1 2 3 4 5
1 last vote to show rating
add to favorites
×
Save as Personal and add changes to this tab that will be seen only by you. Learn more ›
×
You can save this tab as Personal to edit and correct it or add notes. All changes will be seen only by you. Learn more »
launch autoscroll
font size
0
reset
how to read this tab
guitar tuner
edit
Autoscroll
slow
fast
+/-
esc
set tempo
stop
Difficulty
intermediate
This songs from Through the Eyes of the Dead's new album with their new vocalist.  The
does'nt sound right unless its in the right tuning so make sure to tune down to drop B.
first tab so tell me how i'm doing...
erickhansel@yahoo.com

(Start of Riff #1)
c#------------------------------------------------------------|
g#------------------------------------------------------------|
e --------------------------------------------------------5/8-|
b --------------------------------------------------------X-X-|
f#-------------000---------111-----------------000--------3/6-|
b -111-000-444-----444-000-----555-111-000-111-----444-000----|
pm ... ... ... ... ... ... ... ... ... ... ... ... ... ...
                                              (End Of Riff #1)
c#------------------------------------------------------------|
g#------------------------------------------------------------|
e ------------------------------------------------------------|
b ---------------------------------1-000-000-000-4-000-4/7----|
f#-------------000---------111-----1-000-000-000-4-000-4/7----|
b -111-000-444-----444-000-----555-1-000-000-000-4-000-4/7----|
pm ... ... ... ... ... ... ... ...   ... ... ...   ...

Play riff #1 twice.  Then play Riff #2 twice

(Start of Riff #2) all single notes are trem picked,chords are the exception
c#---------------------------------------------------------------------------|
g#---------------------------------------------------------------------------|
e -----------------------------------------------------------------------5/8-|
b -----------------------------------------------------------------------X-X-|
f#----------------0000-----------1111---------------------0000-----------3/6-|
b -1111-0000-4444------4444-0000------5555-1111-0000-4444------4444-0000-----|
                                                   (End of Riff #2)
c#-----------------------------------------------------------------|
g#-----------------------------------------------------------------|
e -----------------------------------------------------------------|
b -----------------------------------------1-000-000-000-1-000-4/7-|
f#----------------0000-----------1111------1-000-000-000-1-000-4/7-|
b -1111-0000-4444------4444-0000------5555-1-000-000-000-1-000-4/7-|
pm                                           ... ... ...   ...

after you play riff #2 twice play this little bridge to riff #3

c#-------------------------|
g#-------------------------|
e -------------------------|
b -1-000-000-000-1-000-4\1-|
f#-1-000-000-000-1-000-4\1-|
b -1-000-000-000-1-000-4\1-|
pm   ... ... ...   ...

(Start Riff #3)
c#--------------------------------------------------------------|
g#--------------------------------------------------------------|
e --------------------------------------------------------------|
b --------------------------------------------------------------|
f#-5---5---5h6p5---9---10-9-6---6h9-5---5---5h6p5---------------|
b ---0---0-------0---0--------0-------0---0-------000-00-000-00-|
pm   .   .       .   .        .       .   .       ... .. ... ..
                                               (End of Riff #3)
c#-------------------------------------------------------------|
g#-------------------------------------------------------------|
e -------------------------------------------------------------|
b -----------------4---8-7-5---4h5-4---4---4h5p4---------------|
f#-5---5---5h6p5-----------------------------------------------|
b ---0---0-------0---0-------0-------0---0-------111-11-111-11-|
pm   .   .       .   .       .       .   .       ... .. ... ..

there's a little break after this riff where the vocalist comes in and then the music
up again and you have to play this riff like 2 more times or something...listen to the
to get it perfect, it's not too hard to get and its way fun to play. I'll add more later 
when i figure out the rest.

            
            
Suggest correction
Creating personal tab
Creating personal tab
You can edit any tab online and save it as your Personal.

You can edit, replace or remove any tab part or add personal notes – all changes will be seen only by you.

Personal tabs can be accessed anytime from any device, even offline.
Learn more »
Give kudos to tab author, rate the tab!
1 2 3 4 5
comments
print report bad tab
3 comments total.
0 reply
tjbhdeath squad 1,391 Oct 25, 2007 11:43 AM

not bad, i am actually like 2 minutes into the song on guitar pro, and i've been tabbing a good bit of tteotd songs.

Good guess on the tuning, they played in standard 7 string for their bloodlust album although i tabbed them in drop b. And i'm pretty sure this songs in drop b 6 strings.

+1 reply
silentshane420 10 Oct 28, 2007 02:18 PM

They use 7 string guitars on their new album and even when they play live. But anythng off of bloodlust was in brop b.

0 reply
OThugSd 20 Nov 16, 2007 01:56 PM

Dude, thank you SO much for tabbing this. As far as I can tell it's correct.

guest
Wanna post a correction for this tab? Suggest correction