Oops, an error
Loading. Please wait.

Pull The Trigger tab

4,059 views 3 this week
2 commentsread comments
1 2 3 4 5
2 more votes to show rating
add to favorites
×
Save as Personal and add changes to this tab that will be seen only by you. Learn more ›
×
You can save this tab as Personal to edit and correct it or add notes. All changes will be seen only by you. Learn more »
launch autoscroll
font size
0
reset
how to read this tab
guitar tuner
edit
Autoscroll
slow
fast
+/-
esc
set tempo
stop
Author
Difficulty
Artist: Through The Eyes Of The Dead
Song: Pull The Trigger
Album: Malice
Label: Prosthetic Records

7 string BEADGBE

I just have the intro for now (which is also played at the end of the song) I'll put up 
rest when I figure it out, I just have one harmony tabbed

they play seven strings tuned to BEADGBE

here it goes

Intro

|-------------------------------------------|
|-------------------------------------------|
|-------------------------------------------|
|-----13\12-12\9-9/10----10\7/9-----7\6-6/9-| 1st time
|------x--x--x-x-x--x-----x-x-x-----x-x-x-x-|
|-2~--11\10-10\7-7/-8-6~--8\5/7-5~--5\4-4/7-|
|-0~------------------4~--------3~----------|


|-----------------------------------------|
|-----------------------------------------|
|-----------------------------------------|
|-----13\12-12\9-9/10----10\7/9-----6/7/9-| 2nd time
|------x--x--x-x-x--x-----x-x-x-----x-x-x-|
|-2~--11\10-10\7-7/-8-6~--8\5/7-5~--4/5/7-|
|-0~------------------4~--------3~--------|


|--------------------------------------------------------------|
|--------------------------------------------------------------|
|--------------------------------------------------------------|
|-------------------13\12-12\9-9/10-------10\7/9-------7\6-6/9-| 1st and
|--------------------x--x--x-x-x--x--------x-x-x-------x-x-x-x-| 3rd times
|-2-222-222-222-222-11\10-10\7-7/-8-6-666--8\5/7-5-555-5\4-4/7-|
|-0-000-000-000-000-----------------4-444--------3-333---------|
    ... ... ... ...                   ...          ...


|------------------------------------------------------------|
|------------------------------------------------------------|
|------------------------------------------------------------|
|-------------------13\12-12\9-9/10-------10\7/9-------6/7/9-| 2nd and
|--------------------x--x--x-x-x--x--------x-x-x-------x-x-x-| 4th times
|-2-222-222-222-222-11\10-10\7-7/-8-6-666--8\5/7-5-555-4/5/7-|
|-0-000-000-000-000-----------------4-444--------3-333-------|
    ... ... ... ...                   ...          ...


I'll put up the rest when I figure it out, enjoy

            
            
Suggest correction
Creating personal tab
Creating personal tab
You can edit any tab online and save it as your Personal.

You can edit, replace or remove any tab part or add personal notes – all changes will be seen only by you.

Personal tabs can be accessed anytime from any device, even offline.
Learn more »
Give kudos to tab author, rate the tab!
1 2 3 4 5
comments
print report bad tab
2 comments total.
+3 reply
c.o.c.-yeah 296 Apr 28, 2008 07:18 AM

nope, go look at pictures of them playing. just because all the tabs on this site for them are in drop b doesn't mean they play it that way. you can play it in drop b but tteotd plays 7 strings in standard b tuning

guest
You may want to rate the tab now too:
select rating
Wanna post a correction for this tab? Suggest correction