Oops, an error
Loading. Please wait.

Two Inches From A Main Artery bass

version 1
version 1

Whole song

Interactive

1,632 views 3 this week
7 commentsread comments
1 2 3 4 5
1 last vote to show rating
add to favorites
×
Save as Personal and add changes to this tab that will be seen only by you. Learn more ›
×
You can save this tab as Personal to edit and correct it or add notes. All changes will be seen only by you. Learn more »
launch autoscroll
font size
0
reset
guitar tuner
edit
Autoscroll
slow
fast
+/-
esc
set tempo
stop
Artist – Through the Eyes of the Dead
Song – Two Inches From a Main Artery
Album – Bloodlust © 2005
Tabbed By – Bryan H. and Ty B.

E ||------------------|----------------|-----------------|
B ||*-----------------|----------------|-----------------|
F#||*-----------------|----------------|-----------------|
B ||---0--------------|----------------|--8--------------|

|------------|------------|----------|-----------|
|------------|------------|----------|-----------|
|------------|------------|----------|-----------|
|--7----3----|--0---------|----------|--8--------|

|----------------------||-----------------------------|
|---------------------*||-----------------------------|
|--6----3----5--------*||-----------------------------|
|----------------------||--0-0-0--0--0--0-0-0--0-0-0--|

|--------------------------||----------------------------|
|--------------------------||*---------------------------|
|--------------------------||*---------------------------|
|--0-0-0--0--0--0-0-0--0---||--1----0-0-0--0-0-0--0-0-0--|

|----------------------------|----------------------------|
|----------------------------|----------------------------|
|----------------------------|----------------------------|
|-0-0-0--0-0-0--0-0-0--5--8--|--7----0-0-0--0-0-0--0-0-0--|

|-------------------------|----------------------------|
|-------------------------|----------------------------|
|-------------------------|----------------------------|
|-0-0-0--7--5--5--4--4----|--1----0-0-0--0-0-0--0-0-0--|

|----------------------------|
|----------------------------|
|----------------------------|
|--0-0-0--0-0-0--0-0-0--5—8--|

|------------------------------------|
|------------------------------------|
|------------------------------------|
|-0--0--0--8--8--8--5--5--5--0--0--0-|

|---------------------------------------||
|--------------------------------------*||
|--------------------------------------*||
|--7--7--7--4--4--4--5--5--5--7--7--7---||

|--------------------------------------|
|--------------------------------------|
|--------------------------------------|
|--0--0--0--8--8--8--5--5--5--0--0--0--|

|-------------------------|--------|--------|
|-------------------------|--------|--------|
|-------------------------|--------|--------|
|-7-7-7-4-4-4-5-5-5-7-7-7-|--------|--------|

|--------||---------------------------------------|
|--------||*--0--0--0--3--3--3--0--0--0--2--2--2--|
|--------||*--------------------------------------|
|--------||---------------------------------------|

|--------------------------------------|
|--0--0--0--7--7--7--0--0--0--3--3--3--|
|--------------------------------------|
|--------------------------------------|

|--------------------------------------|
|--0--0--0--7--7--7--0--0--0--5--5--5--|
|--------------------------------------|
|--------------------------------------|

|--------------------------------------|
|--0--0--0--3--3--3--0--0--0--2--2--2--|
|--------------------------------------|
|--------------------------------------|

|--------------------------|
|--------------------------|
|--------4--1-----5--4-----|
|--0--0--------0--------0--|

|--------------------------|--------------------------|
|--------------------------|--------------------------|
|--7--5-----5--4-----1--4--|--------4--1-----5--4-----|
|--------0--------0--------|--0--0--------0--------0--|


                           3x
---------------------------||
--------------------------*||
--7--5-----5--4-----1--4--*||
--------0--------0---------||


|-------------------------|-------------------------|
|-0-0-0-3-3-3-0-0-0-2-2-2-|-0-0-0-7-7-7-0-0-0-3-3-3-|
|-------------------------|-------------------------|
|-------------------------|-------------------------|

|-------------------------|-------------------------|
|-0-0-0-7-7-7-0-0-0-5-5-5-|-0-0-0-3-3-3-0-0-0-2-2-2-|
|-------------------------|-------------------------|
|-------------------------|-------------------------|

||----------------------------|---------------------||
||*---------------------------|--------------------*||
||*---------5----7------------|-5---8-8-8-8-8-8-8--*||
||-0--0--0------------0--0--0-|---------------------||

|-------------------------|-------------------------|
|-------------------------|-------------------------|
|-1-1-1-5-5-5-1-1-1-5-5-5-|-4-4-4-4-4-4-1-1-1-1-1-1-|
|-------------------------|-------------------------|

|-------------------------|-------------------------||
|-------------------------|------------------------*||
|-1-1-1-5-5-5-1-1-1-5-5-5-|-8-8-8-8-8-8-7-7-7-7-7-7*||
--------------------------|-------------------------||

||--------------------||------------------------||
||*------------------*||*----------------------*||
||*------------------*||*----------------------*||
||--0--------0--------||--0-0-0------0-0-0------||

|-------------------------|-------------------------|
|-0-0-0-3-3-3-0-0-0-2-2-2-|-0-0-0-7-7-7-0-0-0-3-3-3-|
|-------------------------|-------------------------|
|-------------------------|-------------------------|

|-------------------------|-------------------------|
|-0-0-0-7-7-7-0-0-0-5-5-5-|-0-0-0-3-3-3-0-0-0-2-2-2-|
|-------------------------|-------------------------|
|-------------------------|-------------------------|

||---------------------------|--------------------------|
||*--------------------------|--------------------------|
||*--------4--1-----5--4-----|--7--5-----5--4-----1--4--|
||---0--0--------0--------0--|--------0--------0--------|

|--------------------------|--------------------------|
|--------------------------|--------------------------|
|--------4--1-----5--4-----|--7--5-----5--4-----1--4--|
|--0--0--------0--------0--|--------0--------0--------|

|-------------------------|-------------------------|
|-0-0-0-3-3-3-0-0-0-2-2-2-|-0-0-0-7-7-7-0-0-0-3-3-3-|
|-------------------------|-------------------------|
|-------------------------|-------------------------|

|-------------------------|--------------------------||
|-0-0-0-7-7-7-0-0-0-5-5-5-|-0-0-0-3-3-3-0-0-0-2-2-2-*||
|-------------------------|-------------------------*||
|-------------------------|--------------------------||

||-----------------|----------------|-----------------|
||*----------------|----------------|-----------------|
||*----------------|----------------|-----------------|
||-0-0---0-0-0-0---|--0---0-0-0-0---|-0-0---0-0-0-0---|

|---------------|-----------------|----------------|
|---------------|-----------------|----------------|
|-----1-0-5-4~0-|-----------------|----------------|
|-0-0-----------|-0-0---0-0-0-0---|--0---0-0-0-0---|

|-----------------|----------------||
|-----------------|---------------*||
|-----------------|-1-0-5-4-8-7---*||
|-0-0---0-0-0-0---|----------------||

|-------------------------------------------------|
|-------------------------------------------------|
|-------8-8-8-5-5-5-8-8-8-------8-8-8-5-5-5-8-8-8-|
|--0-0-0------------------0-0-0-------------------|

|-----------------------------------------------|
|-----------------------------------------------|
|-------7-7-7-4-4-4-7-7-7-----5-5-5-1-1-1-4-4-4-|
|--2-2-2-----------------2-2-2------------------|

|-------------------------------------------------|
|-------------------------------------------------|
|-------8-8-8-5-5-5-8-8-8-------8-8-8-5-5-5-8-8-8-|
|--0-0-0------------------0-0-0-------------------|

|---------------------------------------------------|
|---------------------------------------------------|
|-------10-10-10-7-7-7-8-8-8------7-7-7-8-8-8-7-7-7-|
|--8-8-8---------------------7-7-7------------------|

|------------------------------------------|
|------------------------------------------|
|-------8--8-5--5-8--8------8--8-5--5-8--8-|
|--0--0----------------0--0----------------|

|------------------------------------------|
|------------------------------------------|
|-------7--7-4--4-7--7------5--5-1--1-4--4-|
|--2--2----------------2--2----------------|

|------------------------------------|
|------------------------------------|
|-------10--10-7--7-8--8-------------|
|--8--8------------------0-0---0-0---|

|----------------------------------------|
|----------------------------------------|
|-------10-10-10-7-7-7-8-8-8-------------|
|--8-8-8---------------------0-0---0-0---|


                                                     2x
|--------------------------|-------------------------||
|*-------------------------|------------------------*||
|*-------------------------|------------------------*||
|--0-0-0-------------0-0-0-|-0-0-0-------------0-0-0-||


|-------------------------|-----------------------|
|-------------------------|-----------------------|
|-------------------------|-----------------------|
|-0-0-0-------------0-0-0-|-0-0-0-----------0-----|

||-------------------------|-------------------------|
||*------------------------|-------5-7-8-10-8-7------|
||*------10-9-6-1-9-6------|--------------------9----|
||-0-0-0-------------0-0-0-|-0-0-0-------------------|


                                                       3x
|---------------------------|--------------------------||
|---------------------------|-------------------------*||
|-------10-9-6-10-9-6-------|-------10-9-7-10-9-7-----*||
|-0-0-0---------------0-0-0-|-0-0-0---------------11---||


||----------------------||
||*--------------------*||
||*--------------------*||
||-0--0-0-0-------------||

|-------------------------------|
|-------------------------------|
|-10-10-10-10-10-10-7-7-7-7-7-7-|
|-------------------------------|


|----------------------------|
|----------------------------|
|-8-8-8-8-8-8-10-10-10-10-10-|
|----------------------------|

||----------------------------------------|
||*---------------------------------------|
||*------------7--5--5--5--4--4--4--1--1--|
||---0--0-0-0-----------------------------|

|--------------------------------------------|
|--------------------------------------------|
|------------7--8--8--8--10--10--10--12--12--|
|--0--0-0-0----------------------------------|

|---------------------------------------|
|---------------------------------------|
|------------7--5--5--5--4--4--4--1--1--|
|--0--0-0-0-----------------------------|

|-------------------------------|
|-------------------------------|
|-10-10-10-10-10-10-7-7-7-7-7-7-|
|-------------------------------|

|----------------------------||
|---------------------------*||
|-8-8-8-8-8-8-10-10-10-10-10*||
|----------------------------||


||---------------------------------------|
||*--------------------------------------|
||*--8--8--8-----------7--7--7-----------|
||------------0--0--0-----------0--0--0--|

|------------------------------------------|
|------------------------------------------|
|--10--10--10-----------8--8--8--7--8--10--|
|--------------8--8--8---------------------|

|-------------------------|--------------------------||
|-------------------------|-------------------------*||
|-8-8-8-------7-7-7-------|-1-0-1-4-4-4-1-4-5-4-1-1-*||
|-------0-0-0-------0-0-0-|--------------------------||

||----------------------------------------|
||*--0--0--0--3--0--0--2--0--0--0-0-0--0--|
||*---------------------------------------|
||----------------------------------------|

|-----------------------------------------|
|--5--0--0--3--0--0--3-3-3-3-3-3-2--3--5--|
|-----------------------------------------|
|-----------------------------------------|

|---------------------------------------|
|--0--0--0--3--0--0--2--0--0--0-0-0--0--|
|---------------------------------------|
|---------------------------------------|

|---------------------------------------------||
|--3-3-3-3-3-3-0--2--3-----------------------*||
|-----------------------7-7-7-7-7-7-4--5--7--*||
|---------------------------------------------||

||-----------------------|---------------------------|
||*----------------------|---------------------------|
||*-8-8-8-----7-7-7------|-10-10-10-----8-8-8-7-8-10-|
||-------0-0-0-----0-0-0-|---------8-8-8-------------|


|----------------------|--------------------------||
|----------------------|-------------------------*||
|-8-8-8-----7-7-7------|-1-0-1-4-4-4-1-4-5-4-1-1-*||
|------0-0-0-----0-0-0-|--------------------------||

||----------------------------|---------------------------|
||*---------------------------|---------------------------|
||*---------------------------|---------------------------|
||-0-0-0--0--0--0-0-0--0-0-0--|--0-0-0--0--0--0-0-0--0----|


                                                          3x
|----------------------------|-------------------------||
|----------------------------|------------------------*||
|----------------------------|------------------------*||
|-0-0-0--0--0--0-0-0--0-0-0--|--0-0-0--0--0--0-0-0--0--||

|---------------------------||
|---------------------------||
|---------------------------||
|--0-0-0--0--0--0-0-0--0----||

            
            
Suggest correction
Creating personal tab
Creating personal tab
You can edit any tab online and save it as your Personal.

You can edit, replace or remove any tab part or add personal notes – all changes will be seen only by you.

Personal tabs can be accessed anytime from any device, even offline.
Learn more »
Give kudos to tab author, rate the tab!
1 2 3 4 5
comments
print report bad tab
7 comments total. Showing first comments.
0 reply
I AM JE§US 30 Oct 25, 2006 04:35 AM

NICE!!!

0 reply
skateswitch 71 May 15, 2007 09:38 AM

notes are spaced pretty far apart, ir the spaced to the double bass?

0 reply
skateswitch 71 May 27, 2007 09:34 PM

good tab.

guest
You may want to rate the tab now too:
select rating
Wanna post a correction for this tab? Suggest correction