Oops, an error
Loading. Please wait.

With Eyes Ever Turned Inward bass

version 1
version 1

Whole song

Interactive

140 views 3 this week
no commentswrite comment
1 2 3 4 5
3 more votes to show rating
add to favorites
×
Save as Personal and add changes to this tab that will be seen only by you. Learn more ›
×
You can save this tab as Personal to edit and correct it or add notes. All changes will be seen only by you. Learn more »
launch autoscroll
font size
0
reset
guitar tuner
edit
Autoscroll
slow
fast
+/-
esc
set tempo
stop
Author
Difficulty
Artist - Through the Eyes of the Dead
Album - Bloodlust
Song - With Eyes Ever Turned Inward
Tabbed by - Bryan H. & Ty B.


Sorry that this isn't compressed really well, because I exported it from my Guitar Pro 
I submitted a while back and thought that since I have the bass tabbed on that, I might 
well get some more points by Posting them alone.  So... Enjoy.


Bass

      W                   W
E ||-------------------|-------------------|
B ||-------------------|-------------------|
F#||-------------------|-------------------|
B ||--0----------------|--L----------------|


  H        H           W
--------------------|-------------------|
--------------------|-------------------|
--------------------|-------------------|
--0-----------------|-------------------|


  W                   W
-------------------|-------------------|
-------------------|-------------------|
-------------------|-------------------|
--0----------------|--L----------------|


  E  E  E  E  E  E  E  E     H        E  E  E  E
--------------------------|-----------------------|
--------------------------|-----------------------|
--------------------------|-----------------------|
--0--0-----0--0-----0--0--|-----------0--0--0--0--|


  Q     Q    Q    Q        Q    Q    Q    Q
-----------------------|-----------------------|
-----------------------|-----------------------|
-----------------------|-----------------------|
--0----12----7----0----|--11----7----3----7----|


  Q     Q    Q    Q       Q    Q    Q    Q
-----------------------|----------------------|
-----------------------|----------------------|
-----------------------|--4----5----7----8----|
--0----12----7----0----|----------------------|


  Q     Q    Q    Q        Q    Q    Q    Q
-----------------------|-----------------------|
-----------------------|-----------------------|
-----------------------|-----------------------|
--0----12----7----0----|--11----7----3----7----|


  Q     Q    Q    Q        Q    Q    E  E  E  E
-----------------------|-------------------------|
-----------------------|-------------------------|
-----------------------|-------------------------|
--0----12----7----0----|--11----7----0--0--3--2--|


  Q    Q    Q    Q       Q    Q    Q    Q
----------------------|----------------------|
----------------------|----------------------|
-------8----5---------|--7----4----5----7----|
--0--------------0----|----------------------|


  Q    Q    Q    Q       Q    Q     Q    Q
----------------------|-----------------------|
----------------------|------------------7----|
-------8----5---------|--7----8----10---------|
--0--------------0----|-----------------------|


  Q    Q    Q    Q       Q    Q    Q    Q
----------------------|----------------------|
----------------------|----------------------|
-------8----5---------|--7----4----5----7----|
--0--------------0----|----------------------|


  Q    Q    Q    Q       Q    Q    E  E  E  E
----------------------|------------------------|-----|
----------------------|------------------------|-----|
-------8----5---------|--7----4----------------|-----|
--0--------------0----|------------0--0--3--2--|-----|


                          E  E  E  E  E  E  E  E
-----|-----|-----|-----|--------------------------|
-----|-----|-----|-----|--------------------------|
-----|-----|-----|-----|--------------------------|
-----|-----|-----|-----|--0--0--0--0--0--0--0--0--|


  E  E  E  E  E  E  E  E     E  E  E  E  E  E  E  E
--------------------------|--------------------------|
--------------------------|--------------------------|
--3--------6--------5-----|--------------------------|
-----0--0-----0--0-----0--|--0--0--0--0--0--0--0--0--|


  E  E  E  E  E  E  E  E     E  E  E  E  E  E  E  E
--------------------------|--------------------------|
--------------------------|--------------------------|
--5--------3--------------|--------------------------|
-----0--0-----0--0--7--0--|--0--0--0--0--0--0--0--0--|


  E  E  E  E  E  E  E  E     E  E  E  E  E  E  E  E
--------------------------|--------------------------|
--------------------------|--------------------------|
--3--------6--------5-----|--------------3--3--6--6--|
-----0--0-----0--0-----0--|--0--0--0--0--------------|


  E  E  E  E  E  E  E  E     E  E  E  E  E  E  E  E
--------------------------|--------------------------|
--------------------------|--------------------------|
--5--5--5--5--------------|--------------------------|
--------------5--5--7--7--|--0--0--0--0--0--0--0--0--|


  E  E  E  E  E  E  E  E     E  E  E  E  E  E  E  E
--------------------------|--------------------------|
--------------------------|--------------------------|
--3--------6--------5-----|--------------------------|
-----0--0-----0--0-----0--|--0--0--0--0--0--0--0--0--|


  E  E  E  E  E  E  E  E     E  E  E  E  E  E  E  E
--------------------------|--------------------------|
--------------------------|--------------------------|
--5--------3--------------|--------------------------|
-----0--0-----0--0--7--0--|--0--0--0--0--0--0--0--0--|


  E  E  E  E  E  E  E  E     E  E  E  E  E  E  E  E
--------------------------|--------------------------|
--------------------------|--------------------------|
--3--------6--------5-----|--------------3--3--6--6--|
-----0--0-----0--0-----0--|--0--0--0--0--------------|


  E  E  E  E  E  E  E  E     Q    Q    Q    Q
--------------------------|----------------------|
--------------------------|----------------------|
--5--5--5--5--------------|------------6----5----|
--------------5--5--7--7--|--5----5--------------|


  Q    Q    Q    Q       Q    Q    Q    Q
----------------------|----------------------|
----------------------|----------------------|
--5----3----5----6----|------------3----1----|
----------------------|--1----1--------------|


  Q    Q    Q    Q       Q    Q    Q    Q
----------------------|----------------------|
----------------------|----------------------|
--1----0----1---------|------------6----5----|
-----------------4----|--5----5--------------|


  Q    Q    Q    Q       H.           Q
----------------------|--------------------|
----------------------|--------------------|
--5----3----5----6----|--------------------|
----------------------|--1------------0----|


  W                   Q    Q    Q    Q
-------------------|----------------------|
-------------------|----------------------|
-------------------|------------6----5----|
--4----------------|--5----5--------------|


  Q    Q    Q    Q       Q    Q    Q    Q
----------------------|----------------------|
----------------------|----------------------|
--5----3----5----6----|------------3----1----|
----------------------|--1----1--------------|


  Q    Q    Q    Q       Q    Q    Q    Q
----------------------|----------------------|
----------------------|----------------------|
--1----0----1---------|------------6----5----|
-----------------4----|--5----5--------------|


  Q    Q    Q    Q       H.           Q
----------------------|--------------------|
----------------------|--------------------|
--5----3----5----6----|--------------------|
----------------------|--1------------0----|


  W                   E  E  E  E  E  E  E  E
-------------------|--------------------------|
-------------------|--------------------------|
-------------------|--------------------------|
--4----------------|--0--0--0--0--0--0--0--0--|


  E  E  E  E  E  E  E  E     E  E  E  E  E  E  E  E
--------------------------|--------------------------|
--------------------------|--------------------------|
--3--------6--------5-----|--------------------------|
-----0--0-----0--0-----0--|--0--0--0--0--0--0--0--0--|


  E  E  E  E  E  E  E  E     E  E  E  E  E  E  E  E
--------------------------|--------------------------|
--------------------------|--------------------------|
--5--------3--------------|--------------------------|
-----0--0-----0--0--7--0--|--0--0--0--0--0--0--0--0--|


  E  E  E  E  E  E  E  E     E  E  E  E  E  E  E  E
--------------------------|--------------------------|
--------------------------|--------------------------|
--3--------6--------5-----|--------------3--3--6--6--|
-----0--0-----0--0-----0--|--0--0--0--0--------------|


  E  E  E  E  E  E  E  E     E  E  E  E  E  E  E  E
--------------------------|--------------------------|
--------------------------|--------------------------|
--5--5--5--5--------------|--------------------------|
--------------5--5--7--7--|--0--0--0--0--0--0--0--0--|


  E  E  E  E  E  E  E  E     E  E  E  E  E  E  E  E
--------------------------|--------------------------|
--------------------------|--------------------------|
--3--------6--------5-----|--------------------------|
-----0--0-----0--0-----0--|--0--0--0--0--0--0--0--0--|


  E  E  E  E  E  E  E  E     E  E  E  E  E  E  E  E
--------------------------|--------------------------|
--------------------------|--------------------------|
--5--------3--------------|--------------------------|
-----0--0-----0--0--7--0--|--0--0--0--0--0--0--0--0--|


  E  E  E  E  E  E  E  E     E  E  E  E  E  E  E  E
--------------------------|--------------------------|
--------------------------|--------------------------|
--3--------6--------5-----|--------------3--3--6--6--|
-----0--0-----0--0-----0--|--0--0--0--0--------------|


  E  E  E  E  E  E     H.              H.
--------------------|---------------|---------------|
--------------------|---------------|---------------|
--5--5--5--5--------|--6------------|--L------------|
--------------5--5--|---------------|---------------|


  E  E  E  E  E  E     E  E  E  E  E  E
--------------------|--------------------|
--------------------|--------------------|
--------------------|--------------------|
--0--0--0--0--0--0--|--0--0--0--0--0--0--|


  E  E  E  E  E  E     E  E  E  E  E  E
--------------------|--------------------|
--------------------|--------------------|
--------------------|--------------------|
--0--0--0--0--0--0--|--0--0--0--0--0--0--|


  E  E  E  E  E  E     E  E  E  E  E  E
--------------------|--------------------|
--------------------|--------------------|
--------------------|--------------------|
--0--0--0--0--0--0--|--0--0--0--0--0--0--|


  S S S S E  E  E  E     S S S S E  E  E  E
----------------------|----------------------|
----------------------|----------------------|
----------------------|----------------------|
--0-0-0-0-0--0--0--0--|--0-0-0-0-0--0--0--0--|


  E  E  E  E  E  E     E  E  E  E  E  E
--------------------|--------------------|
--------------------|--------------------|
--------------------|--------------------|
--0--0--0--0--0--0--|--0--0--0--0--0--0--|


  E  E  E  E  E  E     E  E  E  E  E  E
--------------------|--------------------|
--------------------|--------------------|
--------------------|--------------------|
--0--0--0--0--0--0--|--0--0--0--0--0--0--|


  E  E  E  E  E  E     E  E  E  E  E  E
--------------------|--------------------|
--------------------|--------------------|
--------------------|--------------------|
--0--0--0--0--0--0--|--0--0--0--0--0--0--|


  E  E  E  E  E  E     E  E  E  E  E  E
--------------------|--------------------|
--------------------|--------------------|
--------------------|--------------------|
--0--0--0--0--0--0--|--0--0--0--0--0--0--|


  E  E  E  E  E  E     E  E  E  E  E  E
--------------------|--------------------|
--------------------|--------------------|
--------------------|--------------------|
--0--0--0--0--0--0--|--0--0--0--0--0--0--|


  E  E  E  E  E  E     E  E  E  E  E  E
--------------------|--------------------|
--------------------|--------------------|
--------------------|--------------------|
--0--0--0--0--0--0--|--0--0--0--0--0--0--|


  E  E  E  E  E  E     E  E  E  E  E  E
--------------------|--------------------|
--------------------|--------------------|
--------------------|--------------------|
--0--0--0--0--0--0--|--0--0--0--0--0--0--|


  E  E  E  E  E  E     E  E  E  E  E  E
--------------------|--------------------|
--------------------|--------------------|
--------------------|--------------------|
--0--0--0--0--0--0--|--0--0--0--0--0--0--|


  H.              H.
---------------|---------------|
---------------|---------------|
---------------|---------------|
---------------|---------------|


  E  E  E  E  E  E  E  E     E  E  E  E  E  E  E  E
--------------------------|--------------------------|
--------------------------|--------------------------|
--------------4-----5-----|--------------5-----6-----|
--1--1--1--1-----1-----1--|--1--1--1--1-----1-----1--|


  E  E  E  E  E  E  E  E     E  E  E  E  E  E  E  E
--------------------------|--------------------------|
--------------3--5--------|--------------------------|
--------------------------|-----3--5-----6--5--3--5--|
--0--0--0--0--------0--0--|--0--------0--------------|


  E  E  E  E  E  E  E  E     E  E  E  E  E  E  E  E
--------------------------|--------------------------|
--------------------------|--------------------------|
--------------6-----5-----|--------------3-----5-----|
--1--1--1--1-----1-----1--|--1--1--1--1-----1-----1--|


  E  E  E  E  E  E  E  E     E  E  E  E  E  E  E  E
--------------------------|--------------------------|
--------------------------|-----3--5-----6--5--3--5--|
--------------3--5--------|--------------------------|
--0--0--0--0--------0--0--|--0--------0--------------|


  E  E  E  E  E  E  E  E     E  E  E  E  E  E  E  E
--------------------------|--------------------------|
--------------------------|--------------------------|
--------------4-----5-----|--------------5-----6-----|
--1--1--1--1-----1-----1--|--1--1--1--1-----1-----1--|


  E  E  E  E  E  E  E  E     E  E  E  E  E  E  E  E
--------------------------|--------------------------|
--------------3--5--------|--------------------------|
--------------------------|-----3--5-----6--5--3--5--|
--0--0--0--0--------0--0--|--0--------0--------------|


  E  E  E  E  E  E  E  E     E  E  E  E  E  E  E  E
--------------------------|--------------------------|
--------------------------|--------------------------|
--------------6-----5-----|--------------3-----5-----|
--1--1--1--1-----1-----1--|--1--1--1--1-----1-----1--|


  Q    Q    Q    Q       Q    Q    Q    Q
----------------------|----------------------|
----------------------|----------------------|
----------------------|----------------------|
--0----0----0----0----|--0----0----0----0----|


  Q    Q    Q    Q       Q    Q    Q    Q
----------------------|----------------------|
----------------------|----------------------|
----------------------|----------------------|
--0----0----0----0----|--0----0----0----0----|


  Q    Q    Q    Q       Q    Q    Q    Q
----------------------|----------------------|
----------------------|----------------------|
----------------------|----------------------|
--0----0----0----0----|--0----0----0----0----|


  Q    Q    Q    Q       Q    Q    Q    Q
----------------------|----------------------|
----------------------|----------------------|
----------------------|----------------------|
--0----0----0----0----|--0----0----0----0----|


  Q    Q    Q    Q       Q    Q    Q    Q
----------------------|----------------------|
----------------------|----------------------|
------------6---------|------------5---------|
--1----5---------5----|--0----4---------4----|


  Q    Q    Q    Q       Q    Q    Q    Q
----------------------|----------------------|
----------------------|----------------------|
------------3---------|--1----0--------------|
--1----5---------5----|------------5----4----|


  Q    Q    Q    Q       Q    Q    Q    Q
----------------------|----------------------|
----------------------|----------------------|
------------6---------|------------5---------|
--1----5---------5----|--0----4---------4----|


  E  E  E  E  E  E  E  E     E  E  E  E  H
--------------------------|-----------------------|
--------------------------|-----------------------|
--------------------------|-----------------------|
--0--1--1--3--3--4--4--6--|--6--4--4--3--3--------|


  Q    Q    Q    Q       Q    Q    Q    Q
----------------------|----------------------|
----------------------|----------------------|
------------6---------|------------5---------|
--1----5---------5----|--0----4---------4----|


  Q    Q    Q    Q       Q    Q    Q    Q
----------------------|----------------------|
----------------------|----------------------|
------------3---------|--1----0--------------|
--1----5---------5----|------------5----4----|


  Q    Q    Q    Q       Q    Q    Q    Q
----------------------|----------------------|
----------------------|----------------------|
------------6---------|------------5---------|
--1----5---------5----|--0----4---------4----|


  E  E  E  E  E  E  E  E     E  E  E  E  H
--------------------------|-----------------------|
--------------------------|-----------------------|
--------------------------|-----------------------|
--0--1--1--3--3--4--4--6--|--6--4--4--3--3--------|


  Q    Q    Q    Q       Q.     Q    E  E  E
----------------------|-----------------------|
----------------------|-----------------------|
----------------------|-----------------------|
--0----0----0----0----|--0------0----7--4--1--|


  Q    Q    Q    Q       Q.     Q    E  E  E
----------------------|-----------------------|
----------------------|-----------------------|
----------------------|-----------------------|
--0----0----0----0----|--0------0----4--5--7--|


  Q    Q    Q    Q       Q.     Q    E  E  E
----------------------|-----------------------|
----------------------|-----------------------|
----------------------|-----------------------|
--0----0----0----0----|--0------0----7--4--1--|


  Q    Q    Q    Q       Q.     Q    E  E  E
----------------------|-----------------------|
----------------------|-----------------------|
----------------------|-----------------------|
--0----0----0----0----|--0------0----4--5--7--|


  Q    Q    Q    Q       Q.     Q    E  E  E
----------------------|-----------------------|
----------------------|-----------------------|
----------------------|-----------------------|
--0----0----0----0----|--0------0----7--4--1--|


  W                   W
-------------------|-------------------|
-------------------|-------------------|
-------------------|-------------------|
--0----------------|--1----------------|


  W                   H        E.  E.  E
-------------------|----------------------|
-------------------|----------------------|
-------------------|----------------------|
--4----------------|--5--------5---5---5--|


  W                   W
-------------------|-------------------|
-------------------|-------------------|
-------------------|-------------------|
--0----------------|--1----------------|


  W                   H        E.  E.  E
-------------------|----------------------|
-------------------|----------------------|
-------------------|----------------------|
--4----------------|--5--------0---0---0--|


  W                   W
-------------------|-------------------|
-------------------|-------------------|
-------------------|-------------------|
--0----------------|--1----------------|


  W                   H        E.  E.  E
-------------------|----------------------|
-------------------|----------------------|
-------------------|----------------------|
--4----------------|--5--------5---5---5--|


  W                   W
-------------------|-------------------|
-------------------|-------------------|
-------------------|-------------------|
--0----------------|--1----------------|


  W                   H        E.  E.  E
-------------------|----------------------|
-------------------|----------------------|
-------------------|----------------------|
--4----------------|--5--------0---0---0--|


  W                   W
-------------------|-------------------|
-------------------|-------------------|
-------------------|-------------------|
--0----------------|--L----------------|


  H        H           W
--------------------|-------------------|
--------------------|-------------------|
--------------------|-------------------|
--0-----------------|-------------------|


  W                   W
-------------------|-------------------|
-------------------|-------------------|
-------------------|-------------------|
--0----------------|--L----------------|


  E  E  E  E  E  E  E  E     H        E  E  E  E
--------------------------|-----------------------|
--------------------------|-----------------------|
--------------------------|-----------------------|
--0--0-----0--0-----0--0--|-----------0--0--0--0--|


  Q    Q    Q    Q       Q    Q    Q    Q
----------------------|----------------------|
----------------------|----------------------|
----------------------|----------------------|
--0----0----0----0----|--0----0----0----0----|


  Q.     Q.     Q       H        E.  E.  E
---------------------|----------------------|
---------------------|----------------------|
---------------------|----------------------|
--0------0------0----|-----------0---0---0--|


  Q    Q    Q    Q       Q    Q    Q    Q
----------------------|----------------------|
----------------------|----------------------|
----------------------|----------------------|
--0----0----0----0----|--0----0----0----0----|


  Q.     Q.     Q       H        E.  E.  E
---------------------|----------------------|
---------------------|----------------------|
---------------------|----------------------|
--0------0------0----|-----------0---0---0--|


  Q    Q    Q    Q       Q    Q    Q    Q
----------------------|----------------------|
----------------------|----------------------|
----------------------|----------------------|
--0----0----0----0----|--0----0----0----0----|


  Q.     Q.     Q       H        E.  E.  E
---------------------|----------------------|
---------------------|----------------------|
---------------------|----------------------|
--0------0------0----|-----------0---0---0--|


  Q    Q    Q    Q       Q    Q    Q    Q
----------------------|----------------------|
----------------------|----------------------|
----------------------|----------------------|
--0----0----0----0----|--0----0----0----0----|


  Q.     Q.     Q       H        E.  E.  E
---------------------|----------------------||
---------------------|----------------------||
---------------------|----------------------||
--0------0------0----|-----------0---0---0--||


Duration Legend
---------------
W - whole
H - half
Q - quarter
E - 8th
S - 16th
T - 32nd
X - 64th
. - note dotted
|-n-|  - n-tuplets


Tablature Legend
----------------
L - tied note
x - dead note
g - grace note
(n) - ghost note
> - accentuded note
NH - natural harmonic
AH - artificial harmonic
TH - tapped harmonic
SH - semi harmonic
PH - pitch harmonic
h - hammer on
p - pull off
b - bend
br - bendRelease
pb - preBend
pbr - preBendRelease
brb - bendReleaseBend
\n/ - tremolo bar dip
\n - tremolo bar dive
-/n - tremolo bar Release up
/n\ - tremolo bar inverted dip
/n - tremolo bar return
-\n - tremolo bar Release down
S - shift slide
s - legato slide
/ -  slide into from below or out of upwards
\ -  slide into from above or out of downwards
~ - vibrato
W - wide vibrato
tr - trill
TP - tremolo picking
T - tapping
S - slap
P - pop
< - fade in
^ - brush up
v - brush down

            
            
Suggest correction
Creating personal tab
Creating personal tab
You can edit any tab online and save it as your Personal.

You can edit, replace or remove any tab part or add personal notes – all changes will be seen only by you.

Personal tabs can be accessed anytime from any device, even offline.
Learn more »
Give kudos to tab author, rate the tab!
1 2 3 4 5
comments
print report bad tab
guest
You may want to rate the tab now too:
select rating
Wanna post a correction for this tab? Suggest correction