Oops, an error
Loading. Please wait.

The Wreckage Tab

1,224 views 1 this week
no commentswrite comment
1 2 3 4 5
please rate
add to favorites
launch autoscroll
font size
0
reset
how to read this tab
guitar tuner
Autoscroll
slow
fast
+/-
esc
set tempo
stop
Help us to improve Ultimate-Guitar.com Take our survey!
×
Author
Difficulty
Tuning
intermediate
C G C F A D
THROW THE FIGHT - The Wreckage

Tuning: Drop C

\= Slide Down                      This is just for now , I will finish this!

P= Palm Mute


Intro:
                               PP    PP       PP    PP      PPPP PPPP
C:- --------               ----------------33333-33333--3-5-7777-7777-7-5-|
G:- --------              \-33333-33333-33-33333-33333--3-5-7777-7777-7-5-|
C:- 7------- Let ring     \-55555-55555-55-33333-33333--3-5-7777-7777-7-5-|
F:- ---9---9  x 2         \-55555-55555-55--------------------------------|
A:- -----6--               -----------------------------------------------|
D:- --------               -----------------------------------------------|


Verse

C:- --------          -10\3  |
G:- --------          -10\3  |
C:- 7------- Let ring -10\3  |
F:- ---9---9  x 2     -----  | x 2
A:- -----6--          -----  |
D:- --------          -----  |


Pre-Chorus

                                                 PPPP PPPP    PPPP PPPP
C:- -5-3333-3333----- |     -7777-7777-75 |     -3333-3333-30-3333-3333-35-|
G:- -5-3333-3333-5555 |     -7777-7777-75 |     -3333-3333-30-3333-3333-35-|
C:- -5-3333-3333-7777 |     -7777-7777-75 |     -3333-3333-30-3333-3333-35-|
F:- -------------7777 | x 2 ------------- | x 2 ---------------------------|
A:- ----------------- |     ------------- |     ---------------------------|
D:- ----------------- |     ------------- |     ---------------------------|

Chorus

C:7---------3--10--------5-|
G:7---------3--10-10--10-5-|
C:7-7-10-7--3--10---12---5-|
F:-------------------------|
A:-------------------------|
D:-------------------------|
Suggest correction
Give kudos to tab author, rate the tab!
1 2 3 4 5
comments
print report bad tab
guest
You may want to rate the tab now too:
select rating
Please do not post tabs as comments. Select "correction" instead!