Oops, an error
Loading. Please wait.

Forever tab

version 2
version 2

Whole song

Interactive

167 views 1 this week
no commentswrite comment
1 2 3 4 5
3 more votes to show rating
add to favorites
×
Save as Personal and add changes to this tab that will be seen only by you. Learn more ›
×
You can save this tab as Personal to edit and correct it or add notes. All changes will be seen only by you. Learn more »
launch autoscroll
font size
0
reset
how to read this tab
guitar tuner
edit
Autoscroll
slow
fast
+/-
esc
set tempo
stop
      E  S S E  E  S S E  E.   S    E  S S E  E  S S E  E.   S  
C#||-----------------------------|-----------------------------|
G#||-----------------------------|-----------------------------|
E ||-----------------------------|-----------------------------|
B ||-----------------------------|-----------------------------|
F#||--6--0-0-0--6--0-0-0--7s---6-|--6--0-0-0--6--0-0-0--7s---6-|
B ||--6--0-0-0--6--0-0-0--7s---6-|--6--0-0-0--6--0-0-0--7s---6-|


  E  S S E  E  S S E  E.   S    E  S S E  E  E  E  E  E   
-----------------------------|---------------------------|
-----------------------------|---------------------------|
-----------------------------|---------------------------|
-----------------------------|------------------0--0--1--|
--6--0-0-0--6--0-0-0--7s---6-|--6--0-0-0--6--0--0--0--1--|
--6--0-0-0--6--0-0-0--7s---6-|--6--0-0-0--6--0--0--0--1--|


  E  S S E  E  S S E  E.   S    E  S S E  E  S S E  E.   S  
-----------------------------|-----------------------------|
-----------------------------|-----------------------------|
-----------------------------|-----------------------------|
-----------------------------|-----------------------------|
--6--0-0-0--6--0-0-0--7s---6-|--6--0-0-0--6--0-0-0--7s---6-|
--6--0-0-0--6--0-0-0--7s---6-|--6--0-0-0--6--0-0-0--7s---6-|


  E  S S E  E  S S E  E.   S    E  S S E  E  E  E  E  E     E  E  H.            
-----------------------------|---------------------------|---------------------|
-----------------------------|---------------------------|---------------------|
-----------------------------|---------------------------|---------------------|
-----------------------------|------------------0--0--1--|--0------------------|
--6--0-0-0--6--0-0-0--7s---6-|--6--0-0-0--6--0--0--0--1--|--0------------------|
--6--0-0-0--6--0-0-0--7s---6-|--6--0-0-0--6--0--0--0--1--|--0------------------|


  H.           Q       E  S S E  E  S S E  E.   S  
--------------------|-----------------------------|
--------------------|-----------------------------|
--------------------|-----------------------------|
---------------0----|--6--0-0-0--6--0-0-0--7s---6-|
---------------0----|--6--0-0-0--6--0-0-0--7s---6-|
---------------0----|--6--0-0-0--6--0-0-0--7s---6-|


  E  S S E  E  S S E  E.   S    E  S S E  E  S S E  E.   S  
-----------------------------|-----------------------------|
-----------------------------|-----------------------------|
-----------------------------|-----------------------------|
--6--0-0-0--6--0-0-0--7s---6-|--6--0-0-0--6--0-0-0--7s---6-|
--6--0-0-0--6--0-0-0--7s---6-|--6--0-0-0--6--0-0-0--7s---6-|
--6--0-0-0--6--0-0-0--7s---6-|--6--0-0-0--6--0-0-0--7s---6-|


  E  S S E  E  S S E  E.   S    E  S S E  E  S S E  E.   S  
-----------------------------|-----------------------------|
-----------------------------|-----------------------------|
-----------------------------|-----------------------------|
--6--0-0-0--6--0-0-0--7s---6-|--6--0-0-0--6--0-0-0--7s---6-|
--6--0-0-0--6--0-0-0--7s---6-|--6--0-0-0--6--0-0-0--7s---6-|
--6--0-0-0--6--0-0-0--7s---6-|--6--0-0-0--6--0-0-0--7s---6-|


  E  S S E  E  S S E  E.   S    E  S S E  E  S S E  E.   S  
-----------------------------|-----------------------------|
-----------------------------|-----------------------------|
-----------------------------|-----------------------------|
--6--0-0-0--6--0-0-0--7s---6-|--6--0-0-0--6--0-0-0--7s---6-|
--6--0-0-0--6--0-0-0--7s---6-|--6--0-0-0--6--0-0-0--7s---6-|
--6--0-0-0--6--0-0-0--7s---6-|--6--0-0-0--6--0-0-0--7s---6-|


  E  S S E  E  S S E  E.   S    E  S S E  E  S S E  E.   S  
-----------------------------|-----------------------------|
-----------------------------|-----------------------------|
-----------------------------|-----------------------------|
--6--0-0-0--6--0-0-0--7s---6-|--6--0-0-0--6--0-0-0--7s---6-|
--6--0-0-0--6--0-0-0--7s---6-|--6--0-0-0--6--0-0-0--7s---6-|
--6--0-0-0--6--0-0-0--7s---6-|--6--0-0-0--6--0-0-0--7s---6-|


  E  S S E  E  S S E  E.   S    E  S S E  E  S S E  E.   S  
-----------------------------|-----------------------------|
-----------------------------|-----------------------------|
-----------------------------|-----------------------------|
--6--0-0-0--6--0-0-0--7s---6-|--6--0-0-0--6--0-0-0--7s---6-|
--6--0-0-0--6--0-0-0--7s---6-|--6--0-0-0--6--0-0-0--7s---6-|
--6--0-0-0--6--0-0-0--7s---6-|--6--0-0-0--6--0-0-0--7s---6-|


  E  S S E  E  S S E  E.   S    E  S S E  E  S S E  E.   S  
-----------------------------|-----------------------------|
-----------------------------|-----------------------------|
-----------------------------|-----------------------------|
--6--0-0-0--6--0-0-0--7s---6-|--6--0-0-0--6--0-0-0--7s---6-|
--6--0-0-0--6--0-0-0--7s---6-|--6--0-0-0--6--0-0-0--7s---6-|
--6--0-0-0--6--0-0-0--7s---6-|--6--0-0-0--6--0-0-0--7s---6-|


  E  S S E  E  S S E  E.   S    E  S S E  E  S S E  E.   S  
-----------------------------|-----------------------------|
-----------------------------|-----------------------------|
-----------------------------|-----------------------------|
--6--0-0-0--6--0-0-0--7s---6-|--6--0-0-0--6--0-0-0--7s---6-|
--6--0-0-0--6--0-0-0--7s---6-|--6--0-0-0--6--0-0-0--7s---6-|
--6--0-0-0--6--0-0-0--7s---6-|--6--0-0-0--6--0-0-0--7s---6-|


  E  S S E  E  S S E  E.   S    E  S S E  E  H         
-----------------------------|------------------------|
-----------------------------|------------------------|
-----------------------------|------------------------|
--6--0-0-0--6--0-0-0--7s---6-|--0------1--0-----------|
--6--0-0-0--6--0-0-0--7s---6-|--0--0-0-1--0-----------|
--6--0-0-0--6--0-0-0--7s---6-|--0--0-0-1--0-----------|


  E  S S E  E  E  E  E  E     E  S S E  E  H         
---------------------------|------------------------|
---------------------------|------------------------|
---------------------------|------------------------|
--0------1--0-----0--3--6--|--0------1--0-----------|
--0--0-0-1--0-----0--3--6--|--0--0-0-1--0-----------|
--0--0-0-1--0-----0--3--6--|--0--0-0-1--0-----------|


  E  S S E  E  E  E  E  E     E  S S E  E  H         
---------------------------|------------------------|
---------------------------|------------------------|
---------------------------|------------------------|
--0------1--0-----0--3--6--|--0------1--0-----------|
--0--0-0-1--0-----0--3--6--|--0--0-0-1--0-----------|
--0--0-0-1--0-----0--3--6--|--0--0-0-1--0-----------|


  E  S S E  E  E  E  E  E     E  S S E  E  H         
---------------------------|------------------------|
---------------------------|------------------------|
---------------------------|------------------------|
--0------1--0-----0--3--6--|--0------1--0-----------|
--0--0-0-1--0-----0--3--6--|--0--0-0-1--0-----------|
--0--0-0-1--0-----0--3--6--|--0--0-0-1--0-----------|


                                          PM PM PM PM PM PM     
  E  S S E  E  E  E  E  E     E  E  E  E  S  S  S  S  S  S  E   
---------------------------|-----------------------------------|
---------------------------|-----------------------------------|
---------------------------|-----------------------------------|
--0------1--0-----0--3--6--|--0--0--0-----------------------0--|
--0--0-0-1--0-----0--3--6--|--0--0--0-----0--0--0--0--0--0--0--|
--0--0-0-1--0-----0--3--6--|--0--0--0-----0--0--0--0--0--0--0--|


                                       PM PM PM PM PM PM     
  E  E  E  Q    E  Q       E  E  E  E  S  S  S  S  S  S  E   
------------------------|-----------------------------------|
------------------------|-----------------------------------|
------------------------|-----------------------------------|
--L--0--0----------1----|--0--0--0-----------------------0--|
--L--0--0-------0--1----|--0--0--0-----0--0--0--0--0--0--0--|
--L--0--0-------0--1----|--0--0--0-----0--0--0--0--0--0--0--|


                                        PM PM PM PM PM PM     
  E  E  E  Q    E  E  E     E  E  E  E  S  S  S  S  S  S  E   
-------------------------|-----------------------------------|
-------------------------|-----------------------------------|
-------------------------|-----------------------------------|
--L--0--0----------1--3--|--0--0--0-----------------------0--|
--L--0--0-------0--1--3--|--0--0--0-----0--0--0--0--0--0--0--|
--L--0--0-------0--1--3--|--0--0--0-----0--0--0--0--0--0--0--|


                                       PM PM PM PM PM PM     
  E  E  E  Q    E  Q       E  E  E  E  S  S  S  S  S  S  E   
------------------------|-----------------------------------|
------------------------|-----------------------------------|
------------------------|-----------------------------------|
--L--0--0----------1----|--0--0--0-----------------------0--|
--L--0--0-------0--1----|--0--0--0-----0--0--0--0--0--0--0--|
--L--0--0-------0--1----|--0--0--0-----0--0--0--0--0--0--0--|


                                        PM PM PM                              
  E  E  E  Q    E  E  E     E  E  E  E  E  E  E  E     E  E  E  Q    E  Q     
-------------------------|--------------------------|------------------------|
-------------------------|--------------------------|------------------------|
-------------------------|--------------------------|------------------------|
--L--0--0----------1--3--|--0--0--0--------------0--|--L--0--0----------1----|
--L--0--0-------0--1--3--|--0--0--0-----0--0--0--0--|--L--0--0-------0--1----|
--L--0--0-------0--1--3--|--0--0--0-----0--0--0--0--|--L--0--0-------0--1----|


              PM PM PM                                             PM PM PM     
  E  E  E  E  E  E  E  E     E  E  E  Q    E  E  E     E  E  E  E  E  E  E  E   
--------------------------|-------------------------|--------------------------|
--------------------------|-------------------------|--------------------------|
--------------------------|-------------------------|--------------------------|
--0--0--0--------------0--|--L--0--0----------1--3--|--0--0--0--------------0--|
--0--0--0-----0--0--0--0--|--L--0--0-------0--1--3--|--0--0--0-----0--0--0--0--|
--0--0--0-----0--0--0--0--|--L--0--0-------0--1--3--|--0--0--0-----0--0--0--0--|


                                       PM PM PM                               
  E  E  E  Q    E  Q       E  E  E  E  E  E  E  E     E  E  E  Q    E  E  E   
------------------------|--------------------------|-------------------------|
------------------------|--------------------------|-------------------------|
------------------------|--------------------------|-------------------------|
--L--0--0----------1----|--0--0--0--------------0--|--L--0--0----------1--3--|
--L--0--0-------0--1----|--0--0--0-----0--0--0--0--|--L--0--0-------0--1--3--|
--L--0--0-------0--1----|--0--0--0-----0--0--0--0--|--L--0--0-------0--1--3--|


  E  E  H.              H.           Q       E  S S E  E  S S E  E.   S  
---------------------|--------------------|-----------------------------|
---------------------|--------------------|-----------------------------|
---------------------|--------------------|-----------------------------|
--0------------------|---------------0----|--6--0-0-0--6--0-0-0--7s---6-|
--0------------------|---------------0----|--6--0-0-0--6--0-0-0--7s---6-|
--0------------------|---------------0----|--6--0-0-0--6--0-0-0--7s---6-|


  E  S S E  E  S S E  E.   S    E  S S E  E  S S E  E.   S  
-----------------------------|-----------------------------|
-----------------------------|-----------------------------|
-----------------------------|-----------------------------|
--6--0-0-0--6--0-0-0--7s---6-|--6--0-0-0--6--0-0-0--7s---6-|
--6--0-0-0--6--0-0-0--7s---6-|--6--0-0-0--6--0-0-0--7s---6-|
--6--0-0-0--6--0-0-0--7s---6-|--6--0-0-0--6--0-0-0--7s---6-|


  E  S S E  E  S S E  E.   S    E  S S E  E  S S E  E.   S  
-----------------------------|-----------------------------|
-----------------------------|-----------------------------|
-----------------------------|-----------------------------|
--6--0-0-0--6--0-0-0--7s---6-|--6--0-0-0--6--0-0-0--7s---6-|
--6--0-0-0--6--0-0-0--7s---6-|--6--0-0-0--6--0-0-0--7s---6-|
--6--0-0-0--6--0-0-0--7s---6-|--6--0-0-0--6--0-0-0--7s---6-|


  E  S S E  E  S S E  E.   S    E  S S E  E  S S E  E.   S  
-----------------------------|-----------------------------|
-----------------------------|-----------------------------|
-----------------------------|-----------------------------|
--6--0-0-0--6--0-0-0--7s---6-|--6--0-0-0--6--0-0-0--7s---6-|
--6--0-0-0--6--0-0-0--7s---6-|--6--0-0-0--6--0-0-0--7s---6-|
--6--0-0-0--6--0-0-0--7s---6-|--6--0-0-0--6--0-0-0--7s---6-|


  E  S S E  E  S S E  E.   S    E  S S E  E  S S E  E.   S  
-----------------------------|-----------------------------|
-----------------------------|-----------------------------|
-----------------------------|-----------------------------|
--6--0-0-0--6--0-0-0--7s---6-|--6--0-0-0--6--0-0-0--7s---6-|
--6--0-0-0--6--0-0-0--7s---6-|--6--0-0-0--6--0-0-0--7s---6-|
--6--0-0-0--6--0-0-0--7s---6-|--6--0-0-0--6--0-0-0--7s---6-|


  E  S S E  E  S S E  E.   S    E  S S E  E  S S E  E.   S  
-----------------------------|-----------------------------|
-----------------------------|-----------------------------|
-----------------------------|-----------------------------|
--6--0-0-0--6--0-0-0--7s---6-|--6--0-0-0--6--0-0-0--7s---6-|
--6--0-0-0--6--0-0-0--7s---6-|--6--0-0-0--6--0-0-0--7s---6-|
--6--0-0-0--6--0-0-0--7s---6-|--6--0-0-0--6--0-0-0--7s---6-|


  E  S S E  E  S S E  E.   S    E  S S E  E  S S E  E.   S  
-----------------------------|-----------------------------|
-----------------------------|-----------------------------|
-----------------------------|-----------------------------|
--6--0-0-0--6--0-0-0--7s---6-|--6--0-0-0--6--0-0-0--7s---6-|
--6--0-0-0--6--0-0-0--7s---6-|--6--0-0-0--6--0-0-0--7s---6-|
--6--0-0-0--6--0-0-0--7s---6-|--6--0-0-0--6--0-0-0--7s---6-|


  E  S S E  E  S S E  E.   S    E  S S E  E  S S E  E.   S  
-----------------------------|-----------------------------|
-----------------------------|-----------------------------|
-----------------------------|-----------------------------|
--6--0-0-0--6--0-0-0--7s---6-|--6--0-0-0--6--0-0-0--7s---6-|
--6--0-0-0--6--0-0-0--7s---6-|--6--0-0-0--6--0-0-0--7s---6-|
--6--0-0-0--6--0-0-0--7s---6-|--6--0-0-0--6--0-0-0--7s---6-|


                                         PM PM PM PM PM PM     
  E  S S E  Q    E  E  E     E  E  E  E  S  S  S  S  S  S  E   
--------------------------|-----------------------------------|
--------------------------|-----------------------------------|
--------------------------|-----------------------------------|
--6--0-0-0--6----0--3--6--|--0--0--0-----------------------0--|
--6--0-0-0--6----0--3--6--|--0--0--0-----0--0--0--0--0--0--0--|
--6--0-0-0--6----0--3--6--|--0--0--0-----0--0--0--0--0--0--0--|


                                       PM PM PM PM PM PM     
  E  E  E  Q    E  Q       E  E  E  E  S  S  S  S  S  S  E   
------------------------|-----------------------------------|
------------------------|-----------------------------------|
------------------------|-----------------------------------|
--L--0--0----------1----|--0--0--0-----------------------0--|
--L--0--0-------0--1----|--0--0--0-----0--0--0--0--0--0--0--|
--L--0--0-------0--1----|--0--0--0-----0--0--0--0--0--0--0--|


                                        PM PM PM PM PM PM     
  E  E  E  Q    E  E  E     E  E  E  E  S  S  S  S  S  S  E   
-------------------------|-----------------------------------|
-------------------------|-----------------------------------|
-------------------------|-----------------------------------|
--L--0--0----------1--3--|--0--0--0-----------------------0--|
--L--0--0-------0--1--3--|--0--0--0-----0--0--0--0--0--0--0--|
--L--0--0-------0--1--3--|--0--0--0-----0--0--0--0--0--0--0--|


                                       PM PM PM PM PM PM     
  E  E  E  Q    E  Q       E  E  E  E  S  S  S  S  S  S  E   
------------------------|-----------------------------------|
------------------------|-----------------------------------|
------------------------|-----------------------------------|
--L--0--0----------1----|--0--0--0-----------------------0--|
--L--0--0-------0--1----|--0--0--0-----0--0--0--0--0--0--0--|
--L--0--0-------0--1----|--0--0--0-----0--0--0--0--0--0--0--|


                                        PM PM PM                              
  E  E  E  Q    E  E  E     E  E  E  E  E  E  E  E     E  E  E  Q    E  Q     
-------------------------|--------------------------|------------------------|
-------------------------|--------------------------|------------------------|
-------------------------|--------------------------|------------------------|
--L--0--0----------1--3--|--0--0--0--------------0--|--L--0--0----------1----|
--L--0--0-------0--1--3--|--0--0--0-----0--0--0--0--|--L--0--0-------0--1----|
--L--0--0-------0--1--3--|--0--0--0-----0--0--0--0--|--L--0--0-------0--1----|


              PM PM PM                                             PM PM PM     
  E  E  E  E  E  E  E  E     E  E  E  Q    E  E  E     E  E  E  E  E  E  E  E   
--------------------------|-------------------------|--------------------------|
--------------------------|-------------------------|--------------------------|
--------------------------|-------------------------|--------------------------|
--0--0--0--------------0--|--L--0--0----------1--3--|--0--0--0--------------0--|
--0--0--0-----0--0--0--0--|--L--0--0-------0--1--3--|--0--0--0-----0--0--0--0--|
--0--0--0-----0--0--0--0--|--L--0--0-------0--1--3--|--0--0--0-----0--0--0--0--|


                                       PM PM PM                               
  E  E  E  Q    E  Q       E  E  E  E  E  E  E  E     E  E  E  Q    E  E  E   
------------------------|--------------------------|-------------------------|
------------------------|--------------------------|-------------------------|
------------------------|--------------------------|-------------------------|
--L--0--0----------1----|--0--0--0--------------0--|--L--0--0----------1--3--|
--L--0--0-------0--1----|--0--0--0-----0--0--0--0--|--L--0--0-------0--1--3--|
--L--0--0-------0--1----|--0--0--0-----0--0--0--0--|--L--0--0-------0--1--3--|


     PM PM    PM PM PM       PM PM PM    PM PM        
  E  E  E  E  E  E  E  E     E  E  E  E  E  E  E  E   
--------------------------|--------------------------|
--------------------------|--------------------------|
--------------------------|--------------------------|
--0--------1-----------1--|-----------1--------0--1--|
--0--0--0--1--0--0--0--1--|--0--0--0--1--0--0--0--1--|
--0--0--0--1--0--0--0--1--|--0--0--0--1--0--0--0--1--|


     PM PM    PM PM PM       PM PM PM    PM PM        
  E  E  E  E  E  E  E  E     E  E  E  E  E  E  E  E   
--------------------------|--------------------------|
--------------------------|--------------------------|
--------------------------|--------------------------|
--6--------1-----------1--|-----------1--------0--1--|
--6--0--0--1--0--0--0--1--|--0--0--0--1--0--0--0--1--|
--6--0--0--1--0--0--0--1--|--0--0--0--1--0--0--0--1--|


     PM PM    PM PM PM       PM PM PM    PM PM        
  E  E  E  E  E  E  E  E     E  E  E  E  E  E  E  E   
--------------------------|--------------------------|
--------------------------|--------------------------|
--------------------------|--------------------------|
--6--------1-----------1--|-----------1--------0--1--|
--6--0--0--1--0--0--0--1--|--0--0--0--1--0--0--0--1--|
--6--0--0--1--0--0--0--1--|--0--0--0--1--0--0--0--1--|


     PM PM    PM PM PM       PM                       
  E  E  E  E  E  E  E  E     E  E  E  E  E  E  E  E   
--------------------------|--------------------------|
--------------------------|--------------------------|
--------------------------|--------------------------|
--6--------1-----------1--|-----6--6--6--6--0--0--1--|
--6--0--0--1--0--0--0--1--|--0--6--6--6--6--0--0--1--|
--6--0--0--1--0--0--0--1--|--0--6--6--6--6--0--0--1--|


     PM PM    PM PM PM       PM PM PM    PM PM        
  E  E  E  E  E  E  E  E     E  E  E  E  E  E  E  E   
--------------------------|--------------------------|
--------------------------|--------------------------|
--------------------------|--------------------------|
--0--------1-----------1--|-----------1--------0--1--|
--0--0--0--1--0--0--0--1--|--0--0--0--1--0--0--0--1--|
--0--0--0--1--0--0--0--1--|--0--0--0--1--0--0--0--1--|


     PM PM    PM PM PM       PM PM PM    PM PM        
  E  E  E  E  E  E  E  E     E  E  E  E  E  E  E  E   
--------------------------|--------------------------|
--------------------------|--------------------------|
--------------------------|--------------------------|
--6--------1-----------1--|-----------1--------0--1--|
--6--0--0--1--0--0--0--1--|--0--0--0--1--0--0--0--1--|
--6--0--0--1--0--0--0--1--|--0--0--0--1--0--0--0--1--|


     PM PM    PM PM PM       PM PM PM    PM PM        
  E  E  E  E  E  E  E  E     E  E  E  E  E  E  E  E   
--------------------------|--------------------------|
--------------------------|--------------------------|
--------------------------|--------------------------|
--6--------1-----------1--|-----------1--------0--1--|
--6--0--0--1--0--0--0--1--|--0--0--0--1--0--0--0--1--|
--6--0--0--1--0--0--0--1--|--0--0--0--1--0--0--0--1--|


     PM PM    PM PM PM       PM PM PM    PM PM             PM PM      PM PM     
  E  E  E  E  E  E  E  E     E  E  E  E  E  E  E  E     E  E  E  Q    E  E  E   
--------------------------|--------------------------|-------------------------|
--------------------------|--------------------------|-------------------------|
--------------------------|--------------------------|-------------------------|
--6--------1-----------1--|-----------1--------0--1--|--0--------0----------0--|
--6--0--0--1--0--0--0--1--|--0--0--0--1--0--0--0--1--|--0--0--0--0----0--0--0--|
--6--0--0--1--0--0--0--1--|--0--0--0--1--0--0--0--1--|--0--0--0--0----0--0--0--|


     PM PM      PM             PM PM      PM PM          PM PM      PM        
  E  E  E  Q    E  E  E     E  E  E  Q    E  E  E     E  E  E  Q    E  E  E   
-------------------------|-------------------------|-------------------------|
-------------------------|-------------------------|-------------------------|
-------------------------|-------------------------|-------------------------|
--L--------0-------0--1--|--6--------0----------0--|--L--------0-------0--1--|
--L--0--0--0----0--0--1--|--6--0--0--0----0--0--0--|--L--0--0--0----0--0--1--|
--L--0--0--0----0--0--1--|--6--0--0--0----0--0--0--|--L--0--0--0----0--0--1--|


     PM PM      PM PM          PM PM      PM             PM PM      PM PM     
  E  E  E  Q    E  E  E     E  E  E  Q    E  E  E     E  E  E  Q    E  E  E   
-------------------------|-------------------------|-------------------------|
-------------------------|-------------------------|-------------------------|
-------------------------|-------------------------|-------------------------|
--6--------0----------0--|--L--------0-------0--1--|--6--------0----------0--|
--6--0--0--0----0--0--0--|--L--0--0--0----0--0--1--|--6--0--0--0----0--0--0--|
--6--0--0--0----0--0--0--|--L--0--0--0----0--0--1--|--6--0--0--0----0--0--0--|


     PM PM      PM             PM PM      PM PM          PM PM      PM        
  E  E  E  Q    E  E  E     E  E  E  Q    E  E  E     E  E  E  Q    E  E  E   
-------------------------|-------------------------|-------------------------|
-------------------------|-------------------------|-------------------------|
-------------------------|-------------------------|-------------------------|
--L--------0-------0--1--|--6--------0----------0--|--L--------0-------0--1--|
--L--0--0--0----0--0--1--|--6--0--0--0----0--0--0--|--L--0--0--0----0--0--1--|
--L--0--0--0----0--0--1--|--6--0--0--0----0--0--0--|--L--0--0--0----0--0--1--|


     PM PM      PM PM          PM PM      PM             PM PM      PM PM     
  E  E  E  Q    E  E  E     E  E  E  Q    E  E  E     E  E  E  Q    E  E  E   
-------------------------|-------------------------|-------------------------|
-------------------------|-------------------------|-------------------------|
-------------------------|-------------------------|-------------------------|
--6--------0----------0--|--L--------0-------0--1--|--6--------0----------0--|
--6--0--0--0----0--0--0--|--L--0--0--0----0--0--1--|--6--0--0--0----0--0--0--|
--6--0--0--0----0--0--0--|--L--0--0--0----0--0--1--|--6--0--0--0----0--0--0--|


     PM PM      PM             PM PM      PM PM          PM PM      PM        
  E  E  E  Q    E  E  E     E  E  E  Q    E  E  E     E  E  E  Q    E  E  E   
-------------------------|-------------------------|-------------------------|
-------------------------|-------------------------|-------------------------|
-------------------------|-------------------------|-------------------------|
--L--------0-------0--1--|--6--------0----------0--|--L--------0-------0--1--|
--L--0--0--0----0--0--1--|--6--0--0--0----0--0--0--|--L--0--0--0----0--0--1--|
--L--0--0--0----0--0--1--|--6--0--0--0----0--0--0--|--L--0--0--0----0--0--1--|


  W                   W                   W                 
-------------------|-------------------|-------------------|
-------------------|-------------------|-------------------|
-------------------|-------------------|-------------------|
--0----------------|--L----------------|--L----------------|
--0----------------|--L----------------|--L----------------|
--0----------------|--L----------------|--L----------------|


              PM PM PM PM PM PM                             
  E  E  E  E  S  S  S  S  S  S  E     E  E  E  E  H         
-----------------------------------|-----------------------|
-----------------------------------|-----------------------|
-----------------------------------|-----------------------|
--0--0--0-----------------------0--|--L--0--0--------------|
--0--0--0-----0--0--0--0--0--0--0--|--L--0--0--------------|
--0--0--0-----0--0--0--0--0--0--0--|--L--0--0--------------|


              PM PM PM PM PM PM                             
  E  E  E  E  S  S  S  S  S  S  E     E  E  E  E  H         
-----------------------------------|-----------------------|
-----------------------------------|-----------------------|
-----------------------------------|-----------------------|
--0--0--0-----------------------0--|--L--0--0--------------|
--0--0--0-----0--0--0--0--0--0--0--|--L--0--0--------------|
--0--0--0-----0--0--0--0--0--0--0--|--L--0--0--------------|


              PM PM PM PM PM PM                             
  E  E  E  E  S  S  S  S  S  S  E     E  E  E  E  H         
-----------------------------------|-----------------------|
-----------------------------------|-----------------------|
-----------------------------------|-----------------------|
--0--0--0-----------------------0--|--L--0--0--------------|
--0--0--0-----0--0--0--0--0--0--0--|--L--0--0--------------|
--0--0--0-----0--0--0--0--0--0--0--|--L--0--0--------------|


              PM PM PM PM PM PM          PM PM PM PM PM        
  E  E  E  E  S  S  S  S  S  S  E     E  E  E  E  E  E  E  E   
-----------------------------------|--------------------------|
-----------------------------------|--------------------------|
-----------------------------------|--------------------------|
--0--0--0-----------------------0--|--L-----------------0--1--|
--0--0--0-----0--0--0--0--0--0--0--|--L--0--0--0--0--0--0--1--|
--0--0--0-----0--0--0--0--0--0--0--|--L--0--0--0--0--0--0--1--|


              PM PM PM PM PM PM                              
  E  E  E  E  S  S  S  S  S  S  E     E  E  E  Q    E  Q     
-----------------------------------|------------------------|
-----------------------------------|------------------------|
-----------------------------------|------------------------|
--0--0--0-----------------------0--|--L--0--0-------0--1----|
--0--0--0-----0--0--0--0--0--0--0--|--L--0--0-------0--1----|
--0--0--0-----0--0--0--0--0--0--0--|--L--0--0-------0--1----|


              PM PM PM PM PM PM                               
  E  E  E  E  S  S  S  S  S  S  E     E  E  E  Q    E  E  E   
-----------------------------------|-------------------------|
-----------------------------------|-------------------------|
-----------------------------------|-------------------------|
--0--0--0-----------------------0--|--L--0--0-------0--1--3--|
--0--0--0-----0--0--0--0--0--0--0--|--L--0--0-------0--1--3--|
--0--0--0-----0--0--0--0--0--0--0--|--L--0--0-------0--1--3--|


              PM PM PM PM PM PM                              
  E  E  E  E  S  S  S  S  S  S  E     E  E  E  Q    E  Q     
-----------------------------------|------------------------|
-----------------------------------|------------------------|
-----------------------------------|------------------------|
--0--0--0-----------------------0--|--L--0--0-------0--1----|
--0--0--0-----0--0--0--0--0--0--0--|--L--0--0-------0--1----|
--0--0--0-----0--0--0--0--0--0--0--|--L--0--0-------0--1----|


              PM PM PM PM PM PM                               
  E  E  E  E  S  S  S  S  S  S  E     E  E  E  Q    E  E  E   
-----------------------------------|-------------------------|
-----------------------------------|-------------------------|
-----------------------------------|-------------------------|
--0--0--0-----------------------0--|--L--0--0-------0--1--3--|
--0--0--0-----0--0--0--0--0--0--0--|--L--0--0-------0--1--3--|
--0--0--0-----0--0--0--0--0--0--0--|--L--0--0-------0--1--3--|


              PM PM PM PM PM PM                             
  E  E  E  E  S  S  S  S  S  S  E     E  E  E  E  H         
-----------------------------------|-----------------------|
-----------------------------------|-----------------------|
-----------------------------------|-----------------------|
--0--0--0-----------------------0--|--L--0--0--------------|
--0--0--0-----0--0--0--0--0--0--0--|--L--0--0--------------|
--0--0--0-----0--0--0--0--0--0--0--|--L--0--0--------------|


              PM PM PM PM PM PM                             
  E  E  E  E  S  S  S  S  S  S  E     E  E  E  E  H         
-----------------------------------|-----------------------|
-----------------------------------|-----------------------|
-----------------------------------|-----------------------|
--0--0--0-----------------------0--|--L--0--0--------------|
--0--0--0-----0--0--0--0--0--0--0--|--L--0--0--------------|
--0--0--0-----0--0--0--0--0--0--0--|--L--0--0--------------|


              PM PM PM PM PM PM                             
  E  E  E  E  S  S  S  S  S  S  E     E  E  E  E  H         
-----------------------------------|-----------------------|
-----------------------------------|-----------------------|
-----------------------------------|-----------------------|
--0--0--0-----------------------0--|--L--0--0--------------|
--0--0--0-----0--0--0--0--0--0--0--|--L--0--0--------------|
--0--0--0-----0--0--0--0--0--0--0--|--L--0--0--------------|


              PM PM PM PM PM PM                              
  E  E  E  E  S  S  S  S  S  S  E     E  E  E  E  H          
-----------------------------------|-----------------------||
-----------------------------------|-----------------------||
-----------------------------------|-----------------------||
--0--0--0-----------------------0--|--L--0--0--------------||
--0--0--0-----0--0--0--0--0--0--0--|--L--0--0--------------||
--0--0--0-----0--0--0--0--0--0--0--|--L--0--0--------------||




Duration Legend
---------------
W - whole
H - half
Q - quarter
E - 8th
S - 16th
T - 32nd
X - 64th
. - note dotted
|-n-|  - n-tuplets


Tablature Legend
----------------
L - tied note
x - dead note
g - grace note
(n) - ghost note
> - accentuded note
NH - natural harmonic
AH - artificial harmonic
TH - tapped harmonic
SH - semi harmonic
PH - pitch harmonic
h - hammer on
p - pull off
b - bend
br - bendRelease
pb - preBend
pbr - preBendRelease
brb - bendReleaseBend
\n/ - tremolo bar dip
\n - tremolo bar dive
-/n - tremolo bar Release up
/n\ - tremolo bar inverted dip
/n - tremolo bar return
-\n - tremolo bar Release down
S - shift slide
s - legato slide
/ -  slide into from below or out of upwards
\ -  slide into from above or out of downwards
~ - vibrato
W - wide vibrato
tr - trill
TP - tremolo picking
T - tapping
S - slap
P - pop
< - fade in
^ - brush up
v - brush down
Suggest correction
Creating personal tab
Creating personal tab
You can edit any tab online and save it as your Personal.

You can edit, replace or remove any tab part or add personal notes – all changes will be seen only by you.

Personal tabs can be accessed anytime from any device, even offline.
Learn more »
Give kudos to tab author, rate the tab!
1 2 3 4 5
comments
print report bad tab
guest
You may want to rate the tab now too:
select rating
Wanna post a correction for this tab? Suggest correction