Oops, an error
Loading. Please wait.

Intro Never Back Down Tab

version 1
version 1

Whole song

Interactive

1,984 views 1 this week
4 commentsread comments
1 2 3 4 5
x 3
add to favorites
launch autoscroll
font size
0
reset
how to read this tab
guitar tuner
×
Best way to learn
"Intro Never Back Down"
Autoscroll
slow
fast
+/-
esc
set tempo
stop
Artist: Throwdown
Song: Intro (Never Back Down)
Album: Haymaker
Tabber: theguitarmanX
Tuning: Drop B (B F# B E G# C#)

Main Riff
C#|---------------------------|
G#|---------------------------|
E |---------------------------|
B |-0----1---1-3-1-0----6-3-6-|
F#|-0-00-1-0-1-3-1-0-00-6-3-6-|
B |-0-00-1-0-1-3-1-0-00-6-3-6-|
PM    ..   .         ..

Riff 2
C#|---------------------------|---------|
G#|---------------------------|---------|
E |---------------------------|---------|
B |-0----1---1-3-1-0----6-3-6-|---------|
F#|-0-00-1-0-1-3-1-0-00-6-3-6-|-0--0--0-|<--add this when needed
B |-0-00-1-0-1-3-1-0-00-6-3-6-|-0--0--0-|
PM    ..   .         ..         .  .  .

Riff 3
C#|----------------|
G#|----------------|
E |----------------|
B |----0----0----0-|
F#|-00-0-00-0-00-0-|
B |-00-0-00-0-00-0-|
PM  ..   ..   ..

Riff 4
C#|--------------------------------|-----------------|
G#|----------play-x3---------------|-----------------|
E |--------------------------------|-----------------|
B |--------0----0----0-------------|----0----0----0~-|
F#|-----00-0-00-0-00-0-3-3-3-------|-00-0-00-0-00-0~-|
B |-x//-00-0-00-0-00-0-------6-6-3-|-00-0-00-0-00-0~-|
PM      ..   ..   ..                 ..   ..   ..

Riff 5
C#|-----------------------------|---------------|
G#|-------play-x3---------------|--play-on-4th--|
E |-----------------------------|-----time------|
B |-----------------------------|---------------|
F#|-00-000-00-----0-000---------|---------------|
B |-00-000-00-----0-000-4-0-0-1-|-0-0-4-0-0-<1>-|
PM  .. ... ..     . ...

This song is 100% and kicks ass. Enjoy!
Suggest correction
Give kudos to tab author, rate the tab!
1 2 3 4 5
comments
print report bad tab
4 comments total. Showing first comments.
0 reply
Fender_For_Life 110 Apr 26, 2008 12:14 PM

Just a small correction.

Riff 5
C#|-------------------------------|---------------|
G#|---------play-x3---------------|--play-on-4th--|
E |-------------------------------|-----time------|
B |-------------------------------|---------------|
F#|-0-0-000-0-0-----0-000---------|---------------|
B |-0-0-000-0-0-----0-000-4-00-01-|-0-0-4-4-0--|
PM . . ... . . . ...

0 reply
Fender_For_Life 110 Apr 26, 2008 12:16 PM

crap sorry

Riff 5
C#|-------------------------------|---------------|
G#|---------play-x3---------------|--play-on-4th--|
E |-------------------------------|-----time------|
B |-------------------------------|---------------|
F#|-0-0-000-0-0-----0-000---------|---------------|
B |-0-0-000-0-0-----0-000-4-00-01-|-0-0-4-4-0--|
PM . . ... . . . ...

0 reply
Fender_For_Life 110 Apr 26, 2008 12:17 PM

wtf, its not letting me put in the after the very last 0, and screws the PMs up >_>

guest
You may want to rate the tab now too:
select rating
Wanna post a correction for this tab? Suggest correction