Oops, an error
Loading. Please wait.

Speed And Sleep bass

248 views 1 this week
no commentswrite comment
1 2 3 4 5
3 more votes to show rating
add to favorites
×
Save as Personal and add changes to this tab that will be seen only by you. Learn more ›
×
You can save this tab as Personal to edit and correct it or add notes. All changes will be seen only by you. Learn more »
launch autoscroll
font size
0
reset
guitar tuner
edit
Autoscroll
slow
fast
+/-
esc
set tempo
stop
Author
Difficulty
Band: Throwing Muses
Song: Speed And Sleep

I cant believe that Kirsten Hersh's bands have no tabs!! This is a really
easy song to play for a begginner and sounds great no matter what level you
normally play at.

This song is in 3/4 time

Riff 1:

|-------------------------------------------------------|
|---0h2h3--------------0~-------------------------------|
|------------0h2h3--------------3~----------------------|
|-----------------------------------------3~------------|

Riff 2:

|-------------------------------------------------------|
|----000000---------------------------------------------|
|--------------333333-----------------------------------|
|-------------------------555555--------333333----------|

Bridge:

|--------------------------------------------------------|
|--------------------------------------------------------|    X2
|-----5--------3----------1-------------0----------------|
|--------------------------------------------------------|

|--------------------------------------------------------|
|-------------2-----------3-------------5----------------|    X3
|-----5--------------------------------------------------|
|--------------------------------------------------------|

|--------------------------------------------------------|
|-----------------2---3----5-----3-2---------------------| The timing here is
|--------------------------------------------------------| syncopated.
|----333333-3--------------------------------------------|

Outro:

|--------------------------------------------------------|
|--------------------------------------------------------|
|--------------------------------------------------------|
|----0~---------3~----------5~---------8~----------------|

|--------------------------------------------------------|
|--------------------------------------------------------| That's a 10, not
|--------------------------------------------------------| 1 and 0
|----0~---------3~----------5~---------10~---------------|

The song doesn't really have a verse/chorus format but it's easy enough to hear the 
but here are the lyrics anyway :-)

Was a man took a hand, cleared the ground
Dug a hole we called home
Sprawled here
Eleven years, forty-four seasons
We came unstuck and it stung

Unstuckness flew me
Though the air whispered in my ear
This is chaos and it stings
Tiny strings across the United States
Run from you to me and to everyone we ever breathed with

I don't care if you're sad
I don't care if you're heart is breaking
You soothe me and you turn me on
Speed and sleep

I lock the dogs in the car
And cut across the parking
L'm far away today
But I might as well not be

You quit making mistakes
I might not leave
You quit making mistakes
I might just stay

ENJOY!!

            
            
Suggest correction
Creating personal tab
Creating personal tab
You can edit any tab online and save it as your Personal.

You can edit, replace or remove any tab part or add personal notes – all changes will be seen only by you.

Personal tabs can be accessed anytime from any device, even offline.
Learn more »
Give kudos to tab author, rate the tab!
1 2 3 4 5
comments
print report bad tab
guest
You may want to rate the tab now too:
select rating
Wanna post a correction for this tab? Suggest correction