Oops, an error
Loading. Please wait.

Hated It Tab

275 views 1 this week
no commentswrite comment
1 2 3 4 5
please rate
add to favorites
launch autoscroll
font size
0
reset
how to read this tab
guitar tuner
Tab Pro tools
  • play this tab
  • loop segment
  • change instrument
  • show fretboard
  • metronome
Autoscroll
slow
fast
+/-
esc
set tempo
stop
Difficulty
novice
-------------------------------------------------------------------------------
			     Hated It - Thrush Hermit
			   From the Mallrats Soundtrack
-------------------------------------------------------------------------------
Tabbed by: Nicholas Clark
Email: sponge49@hotmail.com
Date: 3/11/2011

Standard Tuning: E A D G B E

This is one of the best songs off of the Mallrats soundtrack in my opinion. 
One of those coming of age type songs which fits the movie perfectly. 
Im suprised nobody has tabbed it yet. I just figured this out last night 
so hopefully it's right. Here ya go


    Let ring .......                                                mute ring

e|--3------------------------------------------------------------------------|
B|--3------------------------------------------------------------------------|
G|--0------------------------------------------------------------------------|
D|--0------------------------------------------------------------------------|
A|--0------------------------------------------------------------------------|
E|--3------------------------------------------------------------------------|

    Asking you for a favor, you won't want to do it, but you made me a promise

e|---------------------------------------------------------------------------|
B|--------------------------3--3--3--3--3--3--3--3--3--3--3--3--3--3--3--3---|
G|--------------------------2--2--2--2--2--2--2--2--2--2--2--2--2--2--2--2---|
D|--------------------------0--0--0--0--0--0--0--0--0--0--0--0--0--0--0--0---|
A|--------------------------0--0--0--0--0--0--0--0--0--0--0--0--0--0--0--0---|
E|---------------------------------------------------------------------------|

    Im holding you to it

e|---------------------------------------------------|
B|--3--3--3--3--3--3--3--3--3--3--3--3--3--3--3--3---|
G|--2--2--2--2--2--2--2--2--2--2--2--2--2--2--2--2---|
D|--0--0--0--0--0--0--0--0--4--4--4--4--4--4--4--4---|
A|--X--X--X--X--X--X--X--X--0--0--0--0--0--0--0--0---|
E|--2--2--2--2--2--2--2--2---------------------------|


    Let ring .......                                          mute ring

e|--3------------------------------------------------------------------------|
B|--3------------------------------------------------------------------------|
G|--0------------------------------------------------------------------------|
D|--0------------------------------------------------------------------------|
A|--0------------------------------------------------------------------------|
E|--3------------------------------------------------------------------------|

    You get too close, You're gonna get burned, If you get to close, You'll see 

e|---------------------------------------------------------------------------|
B|--------------------------3--3--3--3--3--3--3--3--3--3--3--3--3--3--3--3---|
G|--------------------------2--2--2--2--2--2--2--2--2--2--2--2--2--2--2--2---|
D|--------------------------0--0--0--0--0--0--0--0--0--0--0--0--0--0--0--0---|
A|--------------------------0--0--0--0--0--0--0--0--0--0--0--0--0--0--0--0---|
E|---------------------------------------------------------------------------|

    the tables have turned
 
e|---------------------------------------------------|
B|--3--3--3--3--3--3--3--3--3--3--3--3--3--3--3--3---|
G|--2--2--2--2--2--2--2--2--2--2--2--2--2--2--2--2---|
D|--0--0--0--0--0--0--0--0--4--4--4--4--4--4--4--4---|
A|--X--X--X--X--X--X--X--X--0--0--0--0--0--0--0--0---|
E|--2--2--2--2--2--2--2--2---------------------------|

e|------------------------3--3--3--3--3--3--3--3---|
B|--2----2----2-----------3--3--3--3--3--3--3--3---|
G|--2----2----2-----------0--0--0--0--0--0--0--0---|
D|--2----2----2---2---2---2--2--2--2--2--2--2--2---|
A|--0----0----0---2---2---3--3--3--3--3--3--3--3---|
E|----------------0---0----------------------------|

    Dont come looking for me

e|------------------------3--3--3--3--3--3--3--3---|
B|--2----2----2-----------3--3--3--3--3--3--3--3---|
G|--2----2----2-----------0--0--0--0--0--0--0--0---|
D|--2----2----2---2---2---2--2--2--2--2--2--2--2---|
A|--0----0----0---2---2---3--3--3--3--3--3--3--3---|
E|----------------0---0----------------------------|

    I'll come looking for you

e|--3--3--3--3--3--3--3--3--3--3--3--3--3--2--2--2--2--2--2--2--2--2--2--0--0|
B|--3--3--3--3--3--3--3--3--3--3--3--3--3--3--3--3--3--3--3--3--3--3--3--0--0|
G|--0--0--0--0--0--0--0--0--0--0--0--0--0--2--2--2--2--2--2--2--2--2--2--2--2|
D|--0--0--0--0--0--0--0--0--0--0--0--0--0--0--0--0--0--0--0--0--0--0--0--2--2|
A|--0--0--0--0--0--0--0--0--0--0--0--0--0--------------------------------0--0|
E|--3--3--3--3--3--3--3--3--3--3--3--3--3------------------------------------|

                 You phone me from the highway, you said you'd be here friday

e|--0--0--0--0--0--0--0--0--3--3--3--3--3--3--3--3--3--3--3--3--3--3--3--3---|
B|--0--0--0--0--0--0--0--0--3--3--3--3--3--3--3--3--3--3--3--3--3--3--3--3---|
G|--2--2--2--2--2--2--2--2--0--0--0--0--0--0--0--0--0--0--0--0--0--0--0--0---|
D|--2--2--2--2--2--2--2--2--2--2--2--2--2--2--2--2--2--2--2--2--2--2--2--2---|
A|--0--0--0--0--0--0--0--0--3--3--3--3--3--3--3--3--3--3--3--3--3--3--3--3---|
E|---------------------------------------------------------------------------|

    I was waiting in the driveway


Thats it. You'll have to listen to the song for exact timing, but I think it 
is pretty close. I have included all chord progression sequences in the song.
These sequences are just repeated over different lyrics.

************************************

| /   slide up
| \   slide down
| h   hammer-on
| p   pull-off
| ~   vibrato
| +   harmonic
| x   Mute note
| b   Bend
| pb  Pre-bend
| br  Bend release
| pbr Pre-bend release
| brb Bend release bend

************************************
comments
We did not receive enough feedback on this tab! Please rate:
print report bad tab
1 2 3 4 5
I want to post or [tab]
guest
You may want to rate the tab now too:
select rating
Please do not post tabs as comments. Select "correction" instead!