Oops, an error
Loading. Please wait.

Heartbeats bass

186 views 1 this week
no commentswrite comment
1 2 3 4 5
3 more votes to show rating
add to favorites
×
Save as Personal and add changes to this tab that will be seen only by you. Learn more ›
×
You can save this tab as Personal to edit and correct it or add notes. All changes will be seen only by you. Learn more »
launch autoscroll
font size
0
reset
guitar tuner
edit
Autoscroll
slow
fast
+/-
esc
set tempo
stop
Thrushes are a Baltimore band signed by Birdnote Records.
Their music is distributed by Morphius Disc Manufacturing.
Thrushes Official Myspace: http://www.myspace.com/thrushes
Morphius Official Site: http://www.morphius.com/label/index.cfm?cc=exclusives

INTRO (play three time):

G-------------------|
D------------5----5-|
A--5----5-----------|
E-------------------|

CHORUS (play twice):

G------------------------------------------------------------------|
D------------------------------------------------------------------|
A--3-3-3-3-3-3-3-3-3-3-3-3-3-3-3-3-0-0-0-0-0-0-0-0-0-0-0-0-0-0-0-0-|
E------------------------------------------------------------------|

VERSE 1 (play four times):

G-------------------------------------------------|
D--------------------------5--5--5--5--5--5--5--5-|
A--5--5--5--5--5--5--5--5-------------------------|
E-------------------------------------------------|

CHORUS (play twice).

VERSE 2 (play four times):

G------------------------------------------------------------------|
D----------------------------------5-5-5-5-5-5-5-5-5-5-5-5-5-5-5-5-|
A--5-5-5-5-5-5-5-5-5-5-5-5-5-5-5-5---------------------------------|
E------------------------------------------------------------------|

CHORUS 2 (play once):

G--------------------------------------------------------------------------|
D--------------------0---0-0---0---0-0-------------------------------------|
A--2---2-2--2---2-2---------------------2----------------------------------|
E--------------------------------------------------------------------------|

VERSE 3 (play

G------------------------------------------------------------------|
D----------------------------------5-5-5-5-5-5-5-5-5-5-5-5-5-5-5-5-|
A--5-5-5-5-5-5-5-5-5-5-5-5-5-5-5-5---------------------------------|
E------------------------------------------------------------------|

G------------------------------------------------------------------|
D----------------------------------5-5-5-5-5-5-5-5-5-5-5-5-5-5-5-5-|
A--5-5-5-5-5-5-5-5-5-5-5-5-5-5-5-5---------------------------------|
E------------------------------------------------------------------|

G---------------------------------------------------------------------------------|
D--/10-10-10-10-10-10-10-10-10-10-10-10-10-10-10-10/5-5-5-5-5-5-5-5-5-5-5-5-5-5-5-|
A---------------------------------------------------------------------------------|
E---------------------------------------------------------------------------------|

G---------------------------------------------------------------------------------|
D--/10-10-10-10-10-10-10-10-10-10-10-10-10-10-10-10/5-5-5-5-5-5-5-5-5-5-5-5-5-5-5-|
A---------------------------------------------------------------------------------|
E---------------------------------------------------------------------------------|

OUTRO (play four times):

G---------------------------------------------------------------------------------|
D--/10-10-10-10-10-10-10-10-10-10-10-10-10-10-10-10/5-5-5-5-5-5-5-5-5-5-5-5-5-5-5-|
A---------------------------------------------------------------------------------|
E---------------------------------------------------------------------------------|
Suggest correction
Creating personal tab
Creating personal tab
You can edit any tab online and save it as your Personal.

You can edit, replace or remove any tab part or add personal notes – all changes will be seen only by you.

Personal tabs can be accessed anytime from any device, even offline.
Learn more »
Give kudos to tab author, rate the tab!
1 2 3 4 5
comments
print report bad tab
guest
You may want to rate the tab now too:
select rating
Wanna post a correction for this tab? Suggest correction