Oops, an error
Loading. Please wait.

Deliverance In Sin And Dea tab

148 views 3 this week
no commentswrite comment
1 2 3 4 5
3 more votes to show rating
add to favorites
×
Save as Personal and add changes to this tab that will be seen only by you. Learn more ›
×
You can save this tab as Personal to edit and correct it or add notes. All changes will be seen only by you. Learn more »
launch autoscroll
font size
0
reset
how to read this tab
guitar tuner
edit
Autoscroll
slow
fast
+/-
esc
set tempo
stop
This is my very first tabs I write. Chek out my guitar cover from youtube:
https://youtube.com/watch?list=PLZXsnN48zsLXz-Aqn4vQZSKU6kJoiFrST&v=OhZlE0N7dYo


[Riff #1] X2

D|---------------------------------------------------------------------------------------|
A|---------------------------------------------------------------------------------------|
F|---------------------------------------------------------------------------------------|
C|--------------------9-9-9-9-----------------------------7-7-7-7------------------------|
G|----7-7-7-7-7-7-7-7---------10-10-10-10-9-9-9-9-9-9-9-9---------9-9-9-9----------------|
D|---------------------------------------------------------------------------------------|


[Riff #2] X1

D|-----------------------------------------------------------------------------------------------------------|
A|-----------------------------------------------------------------------------------------------------------|
F|-----------------------------------------------------------------------------------------------------------|
C|-----------------------------------------------------------------------------------------------------------|
G|---7-7-7-7-7-7-7-7-9-9-7-7-9-9-10-10-----------------9-9-9-9-6-6-6-6-----------------9-9-----9-9-10-10...--|
D|-------------------------------------7-7-7-7-7-7-7-7-----------------8-8-8-8-8-8-8-8-----8-8---------------|

D|-----------------------------------------------------------------------------------------------------------|
A|-----------------------------------------------------------------------------------------------------------|
F|-----------------------------------------------------------------------------------------------------------|
C|-----------------------------------------------------------------------------------------------------------|
G|--------------------9-9-9-9-6-6-6-6------------------------------------------------------------------------|
D|----7-7-7-7-7-7-7-7----------------------------------------------------------------------------------------|


[Riff #1] X2

D|---------------------------------------------------------------------------------------|
A|---------------------------------------------------------------------------------------|
F|---------------------------------------------------------------------------------------|
C|--------------------9-9-9-9-----------------------------7-7-7-7------------------------|
G|----7-7-7-7-7-7-7-7---------10-10-10-10-9-9-9-9-9-9-9-9---------9-9-9-9----------------|
D|---------------------------------------------------------------------------------------|


[Riff #2] X1

D|-----------------------------------------------------------------------------------------------------------|
A|-----------------------------------------------------------------------------------------------------------|
F|-----------------------------------------------------------------------------------------------------------|
C|-----------------------------------------------------------------------------------------------------------|
G|---7-7-7-7-7-7-7-7-9-9-7-7-9-9-10-10-----------------9-9-9-9-6-6-6-6-----------------9-9-----9-9-10-10...--|
D|-------------------------------------7-7-7-7-7-7-7-7-----------------8-8-8-8-8-8-8-8-----8-8---------------|

D|-----------------------------------------------------------------------------------------------------------|
A|-----------------------------------------------------------------------------------------------------------|
F|-----------------------------------------------------------------------------------------------------------|
C|-----------------------------------------------------------------------------------------------------------|
G|--------------------9-9-9-9-6-6-6-6------------------------------------------------------------------------|
D|----7-7-7-7-7-7-7-7----------------------------------------------------------------------------------------|


[Riff #3] X2

D|-----------------------------------------------------------------------------------------------------------|
A|-----------------------------------------------------------------------------------------------------------|
F|-----------------------------------------------------------------------------------------------------------|
C|---9-9-10-10-7-7-9-9-5-5-7-7-4-4-5-5-9-9-10-10-7-7-9-9-5-5-7-7-4-4-5-5-5-5-5-5-7-7-7-7-5-5-5-5-4-4-4-4...--|
G|-----------------------------------------------------------------------------------------------------------|
D|-----------------------------------------------------------------------------------------------------------|

D|---------------------------------------------------------------------------------------|
A|---------------------------------------------------------------------------------------|
F|---------------------------------------------------------------------------------------|
C|---------------------------------------------------------------------------------------|
G|--7-7-7-7-6-6-3-3----------------------------------------------------------------------|
D|-----------------7-7-5-5---------------------------------------------------------------|


[Riff #1] X2

D|---------------------------------------------------------------------------------------|
A|---------------------------------------------------------------------------------------|
F|---------------------------------------------------------------------------------------|
C|--------------------9-9-9-9-----------------------------7-7-7-7------------------------|
G|----7-7-7-7-7-7-7-7---------10-10-10-10-9-9-9-9-9-9-9-9---------9-9-9-9----------------|
D|---------------------------------------------------------------------------------------|


[Riff #2] X1

D|-----------------------------------------------------------------------------------------------------------|
A|-----------------------------------------------------------------------------------------------------------|
F|-----------------------------------------------------------------------------------------------------------|
C|-----------------------------------------------------------------------------------------------------------|
G|---7-7-7-7-7-7-7-7-9-9-7-7-9-9-10-10-----------------9-9-9-9-6-6-6-6-----------------9-9-----9-9-10-10...--|
D|-------------------------------------7-7-7-7-7-7-7-7-----------------8-8-8-8-8-8-8-8-----8-8---------------|

D|-----------------------------------------------------------------------------------------------------------|
A|-----------------------------------------------------------------------------------------------------------|
F|-----------------------------------------------------------------------------------------------------------|
C|-----------------------------------------------------------------------------------------------------------|
G|--------------------9-9-9-9-6-6-6-6------------------------------------------------------------------------|
D|----7-7-7-7-7-7-7-7----------------------------------------------------------------------------------------|


[Riff #3] X1

D|-----------------------------------------------------------------------------------------------------------|
A|-----------------------------------------------------------------------------------------------------------|
F|-----------------------------------------------------------------------------------------------------------|
C|---9-9-10-10-7-7-9-9-5-5-7-7-4-4-5-5-9-9-10-10-7-7-9-9-5-5-7-7-4-4-5-5-5-5-5-5-7-7-7-7-5-5-5-5-4-4-4-4...--|
G|-----------------------------------------------------------------------------------------------------------|
D|-----------------------------------------------------------------------------------------------------------|

D|---------------------------------------------------------------------------------------|
A|---------------------------------------------------------------------------------------|
F|---------------------------------------------------------------------------------------|
C|---------------------------------------------------------------------------------------|
G|--7-7-7-7-6-6-3-3----------------------------------------------------------------------|
D|-----------------7-7-5-5---------------------------------------------------------------|


[Riff #1] X2

D|---------------------------------------------------------------------------------------|
A|---------------------------------------------------------------------------------------|
F|---------------------------------------------------------------------------------------|
C|--------------------9-9-9-9-----------------------------7-7-7-7------------------------|
G|----7-7-7-7-7-7-7-7---------10-10-10-10-9-9-9-9-9-9-9-9---------9-9-9-9----------------|
D|---------------------------------------------------------------------------------------|


[Riff #2] X1

D|-----------------------------------------------------------------------------------------------------------|
A|-----------------------------------------------------------------------------------------------------------|
F|-----------------------------------------------------------------------------------------------------------|
C|-----------------------------------------------------------------------------------------------------------|
G|---7-7-7-7-7-7-7-7-9-9-7-7-9-9-10-10-----------------9-9-9-9-6-6-6-6-----------------9-9-----9-9-10-10...--|
D|-------------------------------------7-7-7-7-7-7-7-7-----------------8-8-8-8-8-8-8-8-----8-8---------------|

D|-----------------------------------------------------------------------------------------------------------|
A|-----------------------------------------------------------------------------------------------------------|
F|-----------------------------------------------------------------------------------------------------------|
C|-----------------------------------------------------------------------------------------------------------|
G|--------------------9-9-9-9-6-6-6-6------------------------------------------------------------------------|
D|----7-7-7-7-7-7-7-7----------------------------------------------------------------------------------------|


[Riff #4] X2

D|---------------------------------------------------------------------------------------|
A|---------------------------------------------------------------------------------------|
F|---------------------------------------------------------------------------------------|
C|---------------------------------------------------------------------------------------|
G|----7---7----9-h10-p9---9------7-h9--9----9-7-------------7----------------------------|
D|----------------------------------------------8---8---7-8------------------------------|


[Solo]


[SoloRiff #1] X2

D|-----------------------------------------------------------------------------------------------------------|
A|-----------------------------------------------------------------------------------------------------------|
F|----17---16-16--14-h16-p14---------14-16-17---16-16--14-h16-p14--------------------------------------------|
C|---------------------------17------------------------------------17--16-16--16-h17-p16---------------------|
G|----------------------------------------------------------------------------------------14-----------------|
D|---------------------------------------------------------------------------------------------15--17--15----|


[Riff #5] X4

D|------------------------------------------|
A|------------------------------------------|
F|------------------------------------------|
C|------------------------------------------|
G|----7--7-----7-7-77--5--5----5------------|
D|---------000--0-0--------000---8-7-5-7-8--|
           •••  • •        •••   • • • • •


[SoloRiff #2] X2

D|---------------------------------------------------------------------------------------|
A|---------------------------------------------------------------------------------------|
F|-----7-9-9-9-7-------------------------------------------------------------------------|
C|---------------10-9-7-9-9-h10-p9-7-9-7----7--------------------------------------------|
G|--7------------------------------------10---10-9-10-10-10------------------------------|
D|---------------------------------------------------------------------------------------|


[Riff #3] X2

D|-----------------------------------------------------------------------------------------------------------|
A|-----------------------------------------------------------------------------------------------------------|
F|-----------------------------------------------------------------------------------------------------------|
C|---9-9-10-10-7-7-9-9-5-5-7-7-4-4-5-5-9-9-10-10-7-7-9-9-5-5-7-7-4-4-5-5-5-5-5-5-7-7-7-7-5-5-5-5-4-4-4-4...--|
G|-----------------------------------------------------------------------------------------------------------|
D|-----------------------------------------------------------------------------------------------------------|

D|---------------------------------------------------------------------------------------|
A|---------------------------------------------------------------------------------------|
F|---------------------------------------------------------------------------------------|
C|---------------------------------------------------------------------------------------|
G|--7-7-7-7-6-6-3-3----------------------------------------------------------------------|
D|-----------------7-7-5-5---------------------------------------------------------------|


[Riff #1] X2

D|---------------------------------------------------------------------------------------|
A|---------------------------------------------------------------------------------------|
F|---------------------------------------------------------------------------------------|
C|--------------------9-9-9-9-----------------------------7-7-7-7------------------------|
G|----7-7-7-7-7-7-7-7---------10-10-10-10-9-9-9-9-9-9-9-9---------9-9-9-9----------------|
D|---------------------------------------------------------------------------------------|


[Riff #2] X1

D|-----------------------------------------------------------------------------------------------------------|
A|-----------------------------------------------------------------------------------------------------------|
F|-----------------------------------------------------------------------------------------------------------|
C|-----------------------------------------------------------------------------------------------------------|
G|---7-7-7-7-7-7-7-7-9-9-7-7-9-9-10-10-----------------9-9-9-9-6-6-6-6-----------------9-9-----9-9-10-10...--|
D|-------------------------------------7-7-7-7-7-7-7-7-----------------8-8-8-8-8-8-8-8-----8-8---------------|

D|-----------------------------------------------------------------------------------------------------------|
A|-----------------------------------------------------------------------------------------------------------|
F|-----------------------------------------------------------------------------------------------------------|
C|-----------------------------------------------------------------------------------------------------------|
G|--------------------9-9-9-9-6-6-6-6------------------------------------------------------------------------|
D|----7-7-7-7-7-7-7-7----------------------------------------------------------------------------------------|


[Riff #4] X2

D|---------------------------------------------------------------------------------------|
A|---------------------------------------------------------------------------------------|
F|---------------------------------------------------------------------------------------|
C|---------------------------------------------------------------------------------------|
G|----7---7----9-h10-p9---9------7-h9--9----9-7-------------7----------------------------|
D|----------------------------------------------8---8---7-8------------------------------|


[SoloRiff #1] X2

D|-----------------------------------------------------------------------------------------------------------|
A|-----------------------------------------------------------------------------------------------------------|
F|----17---16-16--14-h16-p14---------14-16-17---16-16--14-h16-p14--------------------------------------------|
C|---------------------------17------------------------------------17--16-16--16-h17-p16---------------------|
G|----------------------------------------------------------------------------------------14-----------------|
D|---------------------------------------------------------------------------------------------15--17--15----|


[SoloRiff #3] X2

D|----------------------------------------------------------------------------------------------------------|
A|----------------------------------------------------------------------------------------------------------|
F|---------9-9-9-9-7-7-7-7-7-7-7-7-9-7----------------------------------------------------------------------|
C|-------------------------------------10-9-7--10-9-7-9-7-h9-p7------7------------------------------7-9-10--|
G|--7-----------------------------------------------------------10-9---10-9-7-10-9-7----------7-9-10--------|
D|-----------------------------------------------------------------------------------10-7-9-10--------------|

D|---------------------------------------------------------------------------------------|
A|---------------------------------------------------------------------------------------|
F|-----------------7-9--11--9------------------------------------------------------------|
C|----------7-9-10-----------------------------------------------------------------------|
G|---7-9-10------------------------------------------------------------------------------|
D|---------------------------------------------------------------------------------------|



************************************

| h  Hammer-on
| p  Pull-off
| .  Palm Mute

************************************

            
            
Suggest correction
Creating personal tab
Creating personal tab
You can edit any tab online and save it as your Personal.

You can edit, replace or remove any tab part or add personal notes – all changes will be seen only by you.

Personal tabs can be accessed anytime from any device, even offline.
Learn more »
Give kudos to tab author, rate the tab!
1 2 3 4 5
comments
print report bad tab
guest
You may want to rate the tab now too:
select rating
Wanna post a correction for this tab? Suggest correction