Oops, an error
Loading. Please wait.

Backstreet Symphony Tab

version 1
version 1

Whole song

Interactive

5,987 views 1 this week
no commentswrite comment
1 2 3 4 5
x 6
add to favorites
launch autoscroll
font size
0
reset
how to read this tab
guitar tuner
Autoscroll
slow
fast
+/-
esc
set tempo
stop
Help us to improve Ultimate-Guitar.com Take our survey!
×
Author
-------------------------------------------------------------------------------
                         Backstreet Symphony - Thunder
-------------------------------------------------------------------------------
Tabbed by: Just_Chaz
Email: murdermug@hotmail.com

Tuning: standard

Intro Riff:
    B5                        A5                E5
e|------------------------------------------------------|
B|--0--0-0--0-0--0-0--0-0--0--0--0-0--0-0--0-0--0-0--0--|
G|--4--4-4--4-4--4-4--4-4--4--4--4-4--4-4--4-4--4-4--4--|
D|--4--4-4--4-4--4-4--4-4--4--4--4-4--4-4--4-4--4-4--4--|
A|------------------------------------------------------|
E|------------------------------------------------------|

    B5                        A5           E5
e|------------------------------------------------------|
B|--0--0-0--0-0--0-0--0-0--0--0--0-0--0-0--0--0-0--0-0--|
G|--4--4-4--4-4--4-4--4-4--4--4--4-4--4-4--4--4-4--4-4--|
D|--4--4-4--4-4--4-4--4-4--4--4--4-4--4-4--4--4-4--4-4--|
A|------------------------------------------------------|
E|------------------------------------------------------|

Main Verse Riff:
e|--------------------------------------------------|
B|--------------------------------------------------|
G|--4-x-4-x-4-x-4--x-4-2----4-x-4-x-4-x-4--x-4-2----|
D|--4-x-4-x-4-x-4--x-4-2----4-x-4-x-4-x-4--x-4-2----|
A|--2-x-2-x-2-x-2--x-2-0----2-x-2-x-2-x-2--x-2-0----|
E|-----------------------4-----------------------4--|

Quick Riff between verse 1 and 2.
e|--0-----------|
B|--0-----------|
G|----x------1--|
D|------x----2--|
A|--------x--2--|
E|-----------0--|

Chorus Riff:
e|------------------------|-----------------------------------|
B|--------9h10-9----------|-----------------------------------|
G|--9--9--9----9--2--2-4--|--9-x-x-9-x-x-8-x-x-8-x-x-2--4--6--|
D|--9--9--9h11-9--2--2-4--|--9-x-x-9-x-x-9-x-x-9-x-x-2--4--6--|
A|--7--7----------0--0-2--|--7-x-x-7-x-x-7-x-x-7-x-x-0--2--4--|
E|--0--0------------------|-----------------------------------|

e|-------------------------------------------------------|
B|--9-x-x-9-x-x--10-x-x-10-x-x--7-x-x-7-x-x-8-x-x-8-x-x--|
G|--9-x-x-9-x-x---9-x-x--9-x-x--8-x-x-8-x-x-7-x-x-7-x-x--|
D|--9-x-x-9-x-x--11-x-x-11-x-x--9-x-x-9-x-x-9-x-x-9-x-x--|
A|--7-x-x-7-x-x-----x-x----x-x--7-x-x-7-x-x-7-x-x-7-x-x--|
E|-------------------------------------------------------|

e|------------------------------|-----|
B|------------------------------|-----|
G|------------------------------|--2--|
D|-------7---6---4---2---1h2p1--|--2--|
A|--0-0--0-0-0-0-0-0-0-0-0------|--0--|
E|------------------------------|-----|

Rhythm 2 over third guitar solo:
e|-----------------------------------------------------------|
B|--15-15-15-15-15-15-15-15-----14-14-14-14-14-14-14-14------|
G|--14-14-14-14-14-14-14-14-----14-14-14-14-14-14-14-14------|
D|--16-16-16-16-16-16-16-16-----14-14-14-14-14-14-14-14------|
A|-----------------------------------------------------------|
E|-----------------------------------------------------------| Repeat
 |                                                           | Rhythm
e|-----------------------------------------------------------| Twice
B|-----------------------------------------------------------|
G|-----------------------------------------------------------| 
D|----------------------------4------------------------------| 
A|---2--x--3--x--4--x--6--4h6-----------------------------5--|
E|-------------------------------2--x--3--x--4--x--5--5h7----|

                                    Play this riff 4 times over solo:
e|-------------------------------|-------------------------------------------|
B|-------------------------------|-------------------------------------------|
G|------------------------9---6--|-------------------------------------------|
D|------------------------9---6--|--4-x-4-x-4---4-x-2-3-4-x-4-x-4-x-4-x-2-3--|
A|----------------------0-7---4--|--4-x-4-x-4-x-4-x-2-3-4-x-4-x-4-x-4-x-2-3--|
E|--0-x-1-x-2-x-3-x-4-x---0------|--2-x-2-x-2-x-2-x-0-1-2-x-2-x-2-x-2-x-0-1--|

First Solo:
e|-------------------------------------------------|
B|--9b11~------------------------------------------|
G|--9b11~-9b11-9b11r9p7-9p7------------------------|
D|--------------------------9~-----7---------------|
A|-----------------------------7h9---9p7-5h7-7b9~--|
E|-------------------------------------------------|

e|----------------------------------------|
B|--------------------------------10b12~--|
G|---------------------------7------------|
D|-------------------------7---9~---------|
A|--7b9-7b9p5--------5h7/9----------------|
E|------------7~-5h7----------------------|

Second Solo:
e|----------------------------------------------------------------------|
B|--17b19~-17p15-17p15----------10h12p10-10b12r10-9b10r9p7--------------|
G|---------------------16~-9h11----------------------------9b11r9p7-----|
D|------------------------------------------------------------------9~--|
A|----------------------------------------------------------------------|
E|----------------------------------------------------------------------|

Third Solo:
e|---------------------------------------------------------------------------|
B|---------------12b14r12p10-12p10------10p7---------------------------------|
G|---------------------------------11\9------9p6-------------------------7~--|
D|-----------------------------------------------9b11r9-7-9p7--------7h9-----|
A|------------------------------------------------------------9p7-9~---------|
E|---------------------------------------------------------------------------|
   PS.......

e|------------------------------------------------------------------|
B|----------------------14-------13------12-----10~--12-----14------|
G|---------------------------------------------------14b16~-16b18~--|
D|-------------------11----11-10----10-9----9-7---------------------|
A|------------------------------------------------------------------|
E|------------------------------------------------------------------|

e|--19b21~-------------------------------------------------------------5-----|
B|---------------------------------------------------------7p5-----------7~--|
G|---------4b5r4p2------------------------2-------2~---4h6-----6p4-4h6-------|
D|-----------------4p2--------------------2-------2--4-----------------------|
A|---------------------4p2-0h2p0----------0-------0--------------------------|
E|-------------------------------2~-2-2-2---2-2-2----------------------------|

e|--------------------------------14--------------------------------------|
B|--19 19b22~-17h19~--12p10-12h14----12p10-12h14-12h14p12-10-12b14r12p10--|
G|------------------------------------------------------------------------|
D|------------------------------------------------------------------------|
A|------------------------------------------------------------------------|
E|------------------------------------------------------------------------|

                            
e|------------------------------------------------------|
B|--12p10----10------------------------------10-10-10~--|
G|--------11----11-9-11p9----9----------------9--9--9~--|
D|------------------------11---11-9p7-9-9/11------------|
A|------------------------------------------------------|
E|------------------------------------------------------|

(Play this part very fast!) 
e|--------12h14p12-------12p9------------------------------------|
B|--12h14----------14p12------12b14r12p10-12p10------10p7--------|
G|----------------------------------------------11p9------9p6----|
D|------------------------------------------------------------9--|
A|---------------------------------------------------------------|
E|---------------------------------------------------------------|

Forth Solo:
                                 (Trill 16x total)
e|----------------------------------------------------------12b14r12p10------|
B|-----7~------------------------------------------------12-------------12~--|
G|-----7~-9b11-9b11-9b11r9p7--------------------14p11h14---------------------|
D|--9~-----------------------9~-7h9p7h9p7h9p7h9------------------------------|
A|---------------------------------------------------------------------------|
E|---------------------------------------------------------------------------|

    Pick harmonics to........................here.
e|---------------------------------------------------------------------------|
B|---------------------------------------------------------------------------|
G|--16-14-16-13-16-13-16-12-11-9-11-7-9-7-9-7-9b11-9b11r9p7-9p7--------------|
D|--------------------------------------------------------------9~-----------|
A|---------------------------------------------------------------------------|
E|---------------------------------------------------------------------------|
     
e|--------10-------10-------10-------10-------10-------10-------10-------10--|
B|--10b12----10b12----10b12----10b12----10b12----10b12----10b12----10b12-----|
G|---------------------------------------------------------------------------|
D|---------------------------------------------------------------------------|
A|---------------------------------------------------------------------------|
E|---------------------------------------------------------------------------|

e|--------10-------10-------10-------10-------10-------10-------10-------10--|
B|--10b12----10b12----10b12----10b12----10b12----10b12----10b12----10b12-----|
G|---------------------------------------------------------------------------|
D|---------------------------------------------------------------------------|
A|---------------------------------------------------------------------------|
E|---------------------------------------------------------------------------|

e|--------15-------15-------15-------15-------17-------17-------17-------17--|
B|--15b17----15b17----15b17----15b17----17b19----17b19----17b19----17b19-----|
G|---------------------------------------------------------------------------|
D|---------------------------------------------------------------------------|
A|---------------------------------------------------------------------------|
E|---------------------------------------------------------------------------|

e|--------17-------17-------17-------17----------17b19~--|
B|--17b19----17b19----17b19----17b19----19r17p15---------|
G|-------------------------------------------------------|
D|-------------------------------------------------------|
A|-------------------------------------------------------|
E|-------------------------------------------------------|
Solo fades out after this, couldn’t be bothered to tab any further.


Structure:
 Intro
 Verse + First solo
 Verse 1
 Verse 2
 Chorus
 Verse + Second Solo
 Verse 3
 Chorus
 Rhythm 2 + Third solo
 Intro
 Chorus
 Verse + Forth solo
 Fade out



| /  slide up
| \  slide down
| h  hammer-on
| p  pull-off
| ~  vibrato
| +  harmonic
| x  Mute note
| b  Bend note
| r  Release note
| PS Pick scrape
===============================================================================

Suggest correction
comments
print report bad tab
guest
You may want to rate the tab now too:
select rating
Wanna post a correction for this tab? Suggest correction