Oops, an error
Loading. Please wait.

Candy Man Tab

864 views 3 this week
no commentswrite comment
1 2 3 4 5
please rate
add to favorites
launch autoscroll
font size
0
reset
how to read this tab
guitar tuner
Tab Pro tools
  • play this tab
  • loop segment
  • change instrument
  • show fretboard
  • metronome
×
Best way to learn
"Candy Man"
Autoscroll
slow
fast
+/-
esc
set tempo
stop
Contributor
-------------------------------------------------------------------------------
                             Candy Man - Thunder
-------------------------------------------------------------------------------
Tabbed by: Freddie_205

From their fantastic latest album Bang!

Tuning: Standard  
                                                                      Last 
   Intro + Verse           (5 times)                   Normally       Time
e|-------------------------------------------------|----------------|--------|
B|--9-9-9-9-10-10-9---7-7-7-7-8-7---2-2-2-2-3-3-2--|--9-9-9-9-10-9--|--2-3-2-|
G|--9-9-9-9-9--9--9---7-7-7-7-7-7---2-2-2-2-2-2-2--|--9-9-9-9-9--9--|--2-2-2-|
D|--9-9-9-9-11-11-9---7-7-7-7-9-7---2-2-2-2-4-4-2--|--9-9-9-9-11-9--|--2-4-2-|
A|-------------------------------------------------|----------------|--------|
E|-------------------------------------------------|----------------|--------|

   Chorus                                                       (bluesy 
                                                              hammer on here)
e|---------------------------------------------------------------------------|
B|--9-9-9-9-9-7---2-2-2-2-2-5---9-9-9-9-9-7-----------5-5-5-6---7-7-7---7----|
G|--9-9-9-9-9-7---2-2-2-2-2-5---9-9-9-9-9-7---2-4-5---5-5-5-6---7-7-7-9-7----|
D|--9-9-9-9-9-7---2-2-2-2-2-5---9-9-9-9-9-7---2-4-5---5-5-5-6---7-7-7-9-7----|
A|--7-7-7-7-7-5---0-0-0-0-0-3---7-7-7-7-7-5---0-2-3---3-3-3-4---5-5-5-5-5----|
E|---------------------------------------------------------------------------|

(Not on Second Chorus, First and Third only)
e|--------------------------------------|
B|---7---7---9-7--7-2---9-9--7-2--------|
G|---7---7---9-7--7-2---9-9--7-2--------|
D|---7---7---9-7--7-2---9-9--7-2--------|
A|---5---5---7-5--5-0---7-7--5-0--------|
E|--------------------------------------|

Repeat Verse 3 times

Chorus

Solo

Verse 2 more times

e|--------------------------------------------------------|
B|--9-9-9-9-10-10-9---7-7-7-8-7--------------------2-4-5--|
G|--9-9-9-9-9--9--9---7-7-7-7-7--------------------2-4-5--|
D|--9-9-9-9-11-11-9---7-7-7-9-7--------------------2-4-5--|
A|-------------------------------------------------0-2-3--|
E|--------------------------------------------------------|

Chorus

End
Enjoy!


===============================================================================
comments
We did not receive enough feedback on this tab! Please rate:
print report bad tab
1 2 3 4 5
I want to post or [tab]
guest
You may want to rate the tab now too:
select rating
Please do not post tabs as comments. Select "correction" instead!