Oops, an error
Loading. Please wait.

Dirty Love Tab

version 1
version 1

Intro

Whole song

5,346 views 1 this week
no commentswrite comment
1 2 3 4 5
please rate
add to favorites
launch autoscroll
font size
0
reset
how to read this tab
guitar tuner
Autoscroll
slow
fast
+/-
esc
set tempo
stop
Help us to improve Ultimate-Guitar.com Take our survey!
×
-------------------------------------------------------------------------------
                             Dirty love - Thunder
-------------------------------------------------------------------------------
Tabbed by: Richard Keeling
Email: keeling00@hotmail.com

Tuning: standard
|---------------------------------------------------------------------------|
B|--------------------------------------------------------------------------|
G|--------------------------------------------------------------------------|
D|---9x--9-------9x---9/------9x---9----9x---9------------------------------|
A|---7x--7-------7x---7/------7x---7----7x---7------------------------------|
E|----------------------------------------------3-2-0-----------------------|

e|---------------------------------------------------------------------------|
B|---------------------------8--7--------------------------------------------|
G|-----------------7----9----7--7--9-----------------------------------------|
D|---9—-9x--9------7----7----------7---9-9-9-9-9-9---2-2-------2-4-----------|
A|---7—-7x--7--------------------------7-7-7-7-7-7---0-0---2\4---------------|
E|---------------------------------------------------------------------------|

e|---------------------------------------------------------------------------|
B|---------------------------------------------------------------------------|
G|---------------------------------------------------------------------------|
D|--7-7-7-7-7-7--4-4----------9-9-9-9-9-9--2-2-------2-4----7-7-7-7-7-7--4-4-|
A|--5-5-5-5-5-5--2-2----------7-7-7-7-7-7--0-0---2\4--------5-5-5-5-5-5--2-2-|
E|-------------------3-2-0---------------------------------------------------|
Suggest correction
Give kudos to tab author, rate the tab!
1 2 3 4 5
comments
print report bad tab
guest
You may want to rate the tab now too:
select rating
Wanna post a correction for this tab? Suggest correction