Oops, an error
Loading. Please wait.

Gimme Shelter solo tab

by Thunder
211 views 3 this week
3 commentsread comments
1 2 3 4 5
1 last vote to show rating
add to favorites
×
Save as Personal and add changes to this tab that will be seen only by you. Learn more ›
×
You can save this tab as Personal to edit and correct it or add notes. All changes will be seen only by you. Learn more »
launch autoscroll
font size
0
reset
how to read this tab
guitar tuner
edit
Autoscroll
slow
fast
+/-
esc
set tempo
stop
Author
Difficulty
About this tab version
Solo Tab of Thunder's Gimme Shelter cover (Rolling Stones song). Was this info helpful? Yes No
Thunder - Gimme Shelter (Solos)
Tuning - Standard
tabbed by jjhand



[Verse 2 Slide]

   Before Verse 2 starts:
e|-----------------|-----------------|------9-------------|--------------------|
B|-----------------|-----------------|---/9---8-7---------|--------------------|
G|----6~---------9-|-6\4~------------|------------9/---6~-|--------------------|
D|-/6--------------|-----------------|--------------------|--------6--4--------|
A|-----------------|-----------------|--------------------|--------------7---4-|
E|-----------------|-----------------|--------------------|--------------------|



[After 2nd Chorus]


  Slide Guitar
e|-/9--9--9--9--9\---|-/9--9--9--9--9\---|-----------------------|-----------------|
B|-/9--9--9--9--9\---|-/9--9--9--9--9\---|-----------------------|-----------------|
G|-------------------|-------------------|-/11-11-10-------------|-----------------|
D|-------------------|-------------------|-----------11----------|-----------------|
A|-------------------|-------------------|--------------11-9-8---|-----------------|
E|-------------------|-------------------|---------------------9-|-(9~)------------|

e|--------------------|---------------------|-----------9---9--|---9---9------------|
B|--------------------|---------------------|---6-7-8/9---9----|-9---9--------------|
G|-9/10------9/10-----|-9/10------9/10------|-6----------------|---------11-9-------|
D|------11--------11--|-------11--------11--|------------------|--------------11~---|
A|--------------------|---------------------|------------------|--------------------|
E|--------------------|---------------------|------------------|--------------------|


   2nd Lead Guitar (2:27)
e|------------------|-----------------------------|------------------------|-------------------------|
B|------------------|-----------------------------|------------------------|-------------------------|
G|-----9/-----------|-----------------------------|------------------------|-------------------------|
D|-11---------------|-11--9h11p9------------------|------------------------|-------------------------|
A|------------------|-----------11--10--9--7--9b--|-7h9p7----------7-------|-------7--9--9b10r--7----|
E|------------------|-----------------------------|-------9~---7h9---9~----|-7--9--------------------|

e|--------------------------|---------------------9--|-12b14~--12-11h12p11-12~-11-9h11p9---|
B|--------------------------|---------------------9--|-----------------------------------12|
G|-9----9--9------9--9------|-9--9------9--9------9--|-------------------------------------|
D|---11------11~-------11~--|------11~-------11~-----|-------------------------------------|
A|--------------------------|------------------------|-------------------------------------|
E|--------------------------|------------------------|-------------------------------------|

e|-9-----------------------------------|-------------------------|------------------14~---|
B|----12--9h12p9----9------------------|-----9--------------14~--|----9-------------------|
G|---------------11---12p11p9----9b----|-----9-----11----13------|----9----11----13-------|
D|----------------------------11----11-|-11-----11----11---------|-11---11----11----------|
A|-------------------------------------|-------------------------|------------------------|
E|-------------------------------------|-------------------------|------------------------|

e|-----16~-----17b19~-|-(b19)---16h17p16p14-16b17r--12h14p12---|
B|--------------------|-------------------------------------14-|
G|--------------------|----------------------------------------|
D|--------------------|----------------------------------------|
A|--------------------|----------------------------------------|
E|--------------------|----------------------------------------|

  (2:51)
e|-14b15r--12p9-11p9---12p9-11p9---12p9-11p9---|-12p9-11p9---12p9-11p9---12p9-11p9--------------|
B|------------------12----------12----------12-|----------12----------12----------12-12b14~\----|
G|---------------------------------------------|------------------------------------------------|
D|---------------------------------------------|------------------------------------------------|
A|---------------------------------------------|------------------------------------------------|
E|---------------------------------------------|------------------------------------------------|

e|-/9----------------------------|-----------------------------------|
B|-----9h12p9h12----9------------|-----------------------------------|
G|---------------12---12-9h11----|----9------------------------------|
D|-------------------------------|-11---11-9-------------------------|
A|-------------------------------|-----------11-10-9\7-9b10r-7-------|
E|-------------------------------|-----------------------------7/9---|

e|------------------|-------------------|-14b16-16-16-16-16-16-16-16-16-16-|
B|------------------|---------9~--------|----------------------------------| keep picking
G|------------------|-9~----------------|----------------------------------| on bend
D|-------------9~---|-------------------|----------------------------------|
A|--------7--x------|-------------------|----------------------------------|
E|-(9~)-------------|-------------------|----------------------------------|


e|-16-16-16-16-16-16-16r14p12----------|
B|----------------------------14~------|
G|-------------------------------------|
D|-------------------------------------|
A|-------------------------------------|
E|-------------------------------------|



[Outro]

e|--------------------|------------------------|---------------------------|-----------------------------|
B|--------------------|------------------------|------9---------------9----|--------------------------9--|
G|-9~-----------------|-9----9--9--9b----------|------9---------------9----|-11b12r-9-----11b12r-9----9--|
D|----11--------------|------------------------|-9h11-------------11-------|----------11-----------11----|
A|--------------------|------------------9h11--|------------9h11--11-------|-----------------------------|
E|--------------------|------------------------|---------------------------|-----------------------------|

e|------------------------------|---------------------------------------|-9---------------12b14-12-9h12p9---|
B|------------9--------------9--|---------------------------------------|---9h12p9---9-12----------------12-|
G|-12p11p9----9--11b12r-9----9--|-9h11p9--9h11p9--9h11p9--9h11p9--9-----|---------11------------------------|
D|--------11--------------11----|-------11------11------11------11------|-----------------------------------|
A|------------------------------|---------------------------------------|-----------------------------------|
E|------------------------------|---------------------------------------|-----------------------------------|

e|----11-12-11-12-14-12-14b16~--|_16r14-12--------------14b16-|_16r14-12--------------|
B|-14---------------------------|----------14-----------------|----------14-----------|
G|------------------------------|-----------------------------|-----------------------|
D|------------------------------|-----------------------------|-----------------------|
A|------------------------------|-----------------------------|-----------------------|
E|------------------------------|-----------------------------|-----------------------|

e|-14b16r-12---14b16r-12-------14b16r-12---|-14b16r-12-------14b16r-12------17b19~--|
B|----------14----------14--------------14-|-----------14--------------14-----------|
G|-----------------------------------------|----------------------------------------|
D|-----------------------------------------|----------------------------------------|
A|-----------------------------------------|----------------------------------------|
E|-----------------------------------------|----------------------------------------|

e|------17-16-16b17-16p14\12----|-16-16-12-----------------|--------------------------|
B|---------------------------14-|----------12-12~----------|--------------------------|
G|------------------------------|--------------------------|-11b13--8-9------9--------|
D|------------------------------|--------------------------|------------9-11---9------|
A|------------------------------|--------------------------|---------------------11---|
E|------------------------------|--------------------------|--------------------------|

e|-----------------------|
B|-----------------------|
G|-----------------------|
D|-----------------------|
A|-11--9--7--7h9p7-------|
E|-----------------9~----|


************************************
KEY:

| h   Hammer-on
| p   Pull-off
| r   Release
| b   Bend
| /   Slide up
| \   Slide down
| ~   Vibrato

************************************

            
            
Suggest correction
Creating personal tab
Creating personal tab
You can edit any tab online and save it as your Personal.

You can edit, replace or remove any tab part or add personal notes – all changes will be seen only by you.

Personal tabs can be accessed anytime from any device, even offline.
Learn more »
Give kudos to tab author, rate the tab!
1 2 3 4 5
comments
print report bad tab
3 comments total.
0 reply
deathshead75 10 Apr 01, 2017 05:44 AM

THANK YOU for doing this!!!!

0 reply
Rocho1 10 Apr 28, 2017 04:15 PM

Thank you I've been looking for tis tab for several times.
Good Job

guest
You may want to rate the tab now too:
select rating
Wanna post a correction for this tab? Suggest correction