Oops, an error
Loading. Please wait.

Gimme Some Lovin Bass Tab

3,097 views 1 this week
no commentswrite comment
1 2 3 4 5
please rate
add to favorites
launch autoscroll
font size
0
reset
guitar tuner
Autoscroll
slow
fast
+/-
esc
set tempo
stop
Help us to improve Ultimate-Guitar.com Take our survey!
×
Difficulty
novice
Tabbed by Gilly Gilfoyle, Hartlepool, UK, May 2008. Hard to pick out the bass tab in 
done my best anyway.

GIMME SOME LOVIN’ (THUNDER VERSION) IN ‘G’ BASS TAB

Intro
Verse 1
G|--------------|
D|-5-5-5-5-5----|
A|--------------|
E|------------3-|

Chorus
    (…So glad we’ve made it…)
   G	Bb    C     Eb
G|----------------------|-------------|-------------------|----------------|
D|----------------------|-5-5-5-5-5---|-------------------|-5-5-5-5-5------|
A|-------1-----3-----6--|-------------|-------0-0-1-1-2-2-|----------------|
E|-3--------------------|-----------3-|-3---3-------------|-----------3----|

G|----------------|--------------|--------------------|
D|----------------|-5-5-5-5-5----|--------------------|
A|----------------|--------------|--------------------|
E|-3--0-0-1-1-2-2-|------------3-|-3---3--0-0-1-1-2-2-|

Intro   (same)
Verse 2 (same)
Run into chorus   Chorus(…every day…)
					     C
G|-----------| 		|-------------------------------------|
D|-----------| 		|-------------------------------------|
A|-----------| 		|----3---2-2-3--5-4-3-----------------|
E|-3-0-1-2-3-| 		|------3---------------3--0-0-1-1-2-2-|

G|----------------------------------|-----------------------------------|
D|----------------------------------|-----------------------------------|
A|-----2-2-3--5-4-3-----------------|------2-2-3--5-4-3-----------------|
E|-3-3---------------3--0-0-1-1-2-2-|--3-3---------------3--0-0-1-1-2-2-|

Intro   (same)
Verse 3 (same)
Chorus  (same)

End        G
G|-----------|
D|-5-3-5-3-5-|
A|-----------|
E|-----------|
Suggest correction
Give kudos to tab author, rate the tab!
1 2 3 4 5
comments
print report bad tab
guest
You may want to rate the tab now too:
select rating
Wanna post a correction for this tab? Suggest correction