Oops, an error
Loading. Please wait.

Gimme Some Lovin Tab

13,243 views 3 this week
no commentswrite comment
1 2 3 4 5
2 more votes to show rating
add to favorites
launch autoscroll
font size
0
reset
how to read this tab
guitar tuner
Autoscroll
slow
fast
+/-
esc
set tempo
stop
Help us to improve Ultimate-Guitar.com Take our survey!
×
Author
-------------------------------------------------------------------------------
                    Gimme Some lovin’ - Thunder
-------------------------------------------------------------------------------
Tabbed by: Just_Chaz
Email: murdermug@hotmail.com

Tuning: Standard


Main rhythm, palm muted, played throughout most of the song.
    G
e|-------------------------------------------------------|-------------------|
B|-------------------------------------------------------|-------------------|
G|-------------------------------------------------------|-------------------|
D|--5-5-5-5-5----5-5-5-5-5----5-5-5-5-5----5-5-5-5-5-----|-------------------|
A|-------------------------------------------------------|-------------------|
E|------------3~-----------3~-----------3~-----------3~--|-------------------|

Organ Refrain, tabbed for guitar, played over main rhythm.
    Dm7   C   Dm7 C   G
e|-----------------------|                |-----------|
B|--6-----5---6---5---3--|     play at >  |-----------|
G|--5-----5---5---5---4--|     end of   > |-----------|
D|--7-----5---7---5---5--|     refrain >  |-----------|
A|--------------------5--|                |-----------|
E|-----------------------|                |--5b6r5-3--|

Bridge Chords.
    G     Bb    C     Eb
e|---------------------------------------------------------------------------|
B|---------------------------------------------------------------------------|
G|--------------5~----8~-----------------------------------------------------|
D|--5~----8~----5~----8~-----------------------------------------------------|
A|--5~----8~----3~----6~-----------------------------------------------------|
E|--3~----6~-----------------------------------------------------------------|

Chorus Chords.
e|----3-----------3-----------3-----------3----------------------------------|
B|----3----5------3----5------3----5------3----5-----------------------------|
G|----4----5------4----5------4----5------4----5-----------------------------|
D|----5----5------5----5------5----5------5----5-----------------------------|
A|---------3-----------3-----------3-----------3-----------------------------|
E|--3-----------3-----------3-----------3------------------------------------|

First guitar solo over refrain.
e|--10-------10-------10-------------------|---------------------------------|
B|-----10b12----10b12----12r10-8---8h10p8--|---------------------------------|
G|-------------------------------9---------|--5b7r5-4------------------------|
D|-----------------------------------------|----------5-------5--------------|
A|-----------------------------------------|------------5-3-2----------------|
E|-----------------------------------------|---------------------------------|
                                                              Wh out.........

e|---------------------------------------------------------------------------|
B|--15-18-18b20~--15h18p15h18p15h18p15h18p15h18p15h18p15h18p15---------------|
G|---------------------------------------------------------------------------|
D|---------------------------------------------------------------------------|
A|---------------------------------------------------------------------------|
E|---------------------------------------------------------------------------|
                  Wh down.....................................

Short solo over verse.
e|--13-------|-------------------------|--20b22~-20b22~-r20-18-------18------|
B|-----11~/--|--17b18r17---------------|-----------------------20-18----20~--|
G|-----------|--17b18r17-15------------|-------------------------------------|
D|-----------|--------------17-15h17~--|-------------------------------------|
A|-----------|-------------------------|-------------------------------------|
E|-----------|-------------------------|-------------------------------------|

Second solo over refrain
e|-------------------------------------------|---------------------|
B|--18b20r18p15------------------------------|--16~----------------|
G|--------------17-15-17b19r17p15------------|------12~------------|
D|--------------------------------17-15-17~--|---------------------|
A|-------------------------------------------|---------------------|
E|-------------------------------------------|---------------------|
                                                    Wh out........

e|--------------------18b20r18p15-13/15------|
B|-----15-20b22r20p18------------------------|
G|--17----------------------------------15~--|
D|-------------------------------------------|
A|-------------------------------------------|
E|-------------------------------------------|


| /  slide up
| \  slide down
| h  hammer-on
| p  pull-off
| ~  vibrato
| +  harmonic
| x  Mute note
| Wh Whammy bar
===============================================================================

Suggest correction
Give kudos to tab author, rate the tab!
1 2 3 4 5
comments
print report bad tab
guest
You may want to rate the tab now too:
select rating
Wanna post a correction for this tab? Suggest correction