Oops, an error
Loading. Please wait.

In A Broken Dream Tab

4,631 views 9 this week
no commentswrite comment
1 2 3 4 5
please rate
add to favorites
launch autoscroll
font size
0
reset
how to read this tab
guitar tuner
Tab Pro tools
  • play this tab
  • loop segment
  • change instrument
  • show fretboard
  • metronome
×
Best way to learn
"In A Broken Dream"
Autoscroll
slow
fast
+/-
esc
set tempo
stop
Contributor
Thunder – In a broken dream

Key: Bb (G minor)
(The main chords are played by an organ throughout the whole song)
INTRO RIFF (same chords as chorus)

|-----------------------------------|
|-----------------------------------|
|----10/12~--12/14/15/14/12-10/12~--|
|-----------------------------------|
|-----8/10~--10/12/13/12/10--8/10~—-|
|-----------------------------------|

|------------------------------------------------------------|
|------------------------------------------------------------|
|--12/14-17/15-14/15-12—15/14-10/12--7/5/7----------------7--|
|-----------------------------------------------3h5p3p0---7--|
|--10/12-15/13-12/13-10—13/12—-8/10--5/3/5—-3h5---------3-5--|
|------------------------------------------------------------|


VERSE 1:
                     Gm             F             C/E
every day I spend my time, drinkin' wine, feelin' fine
        Eb               Gm   F     Bb
waitin' here to find the sign I can understand,
D
Yes I am.

                        Gm          F              C/E
In the days between the hours ivory towers, bloody flowers
           Eb              Gm           F         Bb
Push their heads in to the air, I don't care if I ever know,
D
there I go

(Distorted electric guitar plays power chords over organ)
CHORUS:
      Gm                 F
Don't push your love too far,
     C/E                  Eb
Your wounds won't leave a scar,
      Gm               F          Bb         D
Right now is where you are in a broken dream.


VERSE 2:
On the pad before my eyes paper cries, telling lies
The promises you gave from the grave of a broken heart
Hmm

In the days between the hours ivory towers, bloody flowers
Push their heads in to the air, I don't care if I ever know,
there I go

(Distorted guitar plays power chords, 2nd guitar plays the intro riff shown above over 
part of the chorus)
CHORUS:
Don't push your love too far,
Your wounds won't leave a scar,
Right now is where you are in a broken dream.

Did someone bow their head?
Did someone break the bread?
Good people are in bed before nine o'clock.


VERSE 3:

(Guitar Solo 1, see below)

Every day I spend my time drinkin' wine, feeling fine
Waiting here to find the sign that I can understand
Yes I am. Oh.

(Distorted guitar plays intro riff and power chords over chorus and continues over 
guitar solo until song fades out)
CHORUS:
Don't push your love too far,
Your wounds won't leave a scar,
Right now is where you are in a broken dream.

(Guitar solo 2, see below)
________________________________________________________________

GUITAR SOLO 1:
|--------------------------------------------------------------|
|--------------------------------------8p6---------------------|
|------5p3-----------5b7r5-3h5-----5/7-----7p5-10b12~--10b12~--|
|--3h5-----5p3-3/5~------------5~------------------------------|
|--------------------------------------------------------------|
|--------------------------------------------------------------|


|----------------------------------------------------------15p13------------13-b15~--|
|-----------------------11h13-13-11-13-13b15~-13p11h13—-15-------15p13-13b15~--------|
|--10b12~-10b12~-10-12~--------------------------------------------------------------|
|------------------------------------------------------------------------------------|
|------------------------------------------------------------------------------------|
|------------------------------------------------------------------------------------|


GUITAR SOLO 2:
|--15p13------------------------------------13----------20~-20b22~--18------------|
|--------15p13-11h13------------11h13-13b15~-r13p11h13~----------------18-18b20~--|
|--------------------12~--10h12---------------------------------------------------|
|---------------------------------------------------------------------------------|
|---------------------------------------------------------------------------------|
|---------------------------------------------------------------------------------|

|----------------------------------------------------------------------------------|
|--18b20r18~--13/15 18b20r18p15----------------------------------------------------|
|-------------------------------17-17b19r17p15----17b19r17p15--------15~-----------|
|----------------------------------------------17-------------17---------17p15-----|
|------------------------------------------------------------------------------17--|
|----------------------------------------------------------------------------------|

|----------15-17-18-17-18-20-18-20-20b22r20p18---------------------------------|
|--18b20~--------------------------------------20~--18—15----------------------|
|----------------------------------------------------------17-15-15b17r15------|
|-------------------------------------------------------------------------17~--|
|------------------------------------------------------------------------------|
|------------------------------------------------------------------------------|

|--------------------------15------------------------------------------------------|
|------------------13b15~-----18p15------------------------------------------------|
|--14b15r14p12h14-------------------17b19r17p15h17p15----15------------------------|
|-----------------------------------------------------17----17-15h17p15----15h17~--|
|-----------------------------------------------------------------------17---------|
|----------------------------------------------------------------------------------|
(Fade out)


Tabbed by Just_Chaz (murdermug@hotmail.com)
Please email me with any corrections.
comments
We did not receive enough feedback on this tab! Please rate:
print report bad tab
1 2 3 4 5
I want to post or [tab]
guest
You may want to rate the tab now too:
select rating
Please do not post tabs as comments. Select "correction" instead!