Oops, an error
Loading. Please wait.

Love Walked In Chords

version 1
version 1

Whole song

Interactive

35,533 views 96 this week
2 commentsread comments
1 2 3 4 5
x 12
add to favorites
launch autoscroll
font size
0
reset
transpose
0
reset
simplify chords
display chords
guitar tuner
×
Best way to learn
"Love Walked In"
Autoscroll
slow
fast
+/-
esc
set tempo
stop
[Intro] (x4)
E|-------5---3----3------------1-----0----------------------|
B|-----6-----5------5--------3-------1-----------3----------|
G|-- 7-------5--5-----5----2---------0------0h2-------------|
D|-0---------0-----------0-----------2---2------------------|
A|----------------------------------------------------------|
E|----------------------------------------------------------|

[Verse]
Dm                     C             Dm        
so tired of waiting I walked an empty land 
Bb
I was looking for something to help me understand
Gm                 C           Am
but bad luck kept turning my dreams into sand 

[Chorus]
Dm                   C              Dm
I didn't want pity I had my share of friends 
Bb
I wanted somebody more special than the rest
Gm                      Am          C 
I was aching inside like I was approaching the end

[Instrumental] (x4)
E|-------5---3----3------------1-----0----------------------|
B|-----6-----5------5--------3-------1-----------3----------|
G|-- 7-------5--5-----5----2---------0------0h2-------------|
D|-0---------0-----------0-----------2---2------------------|
A|----------------------------------------------------------|
E|----------------------------------------------------------|

F                            C
Just about that moment the timing was so right
 Dm                  C            Dm         C
you appeared like a vision sent down to my eyes 
 Bb                                       G/B
I thought I was dreaming when I saw you that night

[Chorus]
Dm                   C              Dm
I didn't want pity I had my share of friends 
Bb
I wanted somebody more special than the rest
Gm                      Am          C 
I was aching inside like I was approaching the end

[Verse]
            Dm          Bb          F A C
Thats when love walked in through my door
       Dm        Bb        F A C
that familiar feeling I had before
      Dm      Bb         F A C  
love walked in through my door
               Bb
and it felt so strange

[Outro] (x4)
E|-------5---3----3------------1-----0----------------------|
B|-----6-----5------5--------3-------1-----------3----------|
G|-- 7-------5--5-----5----2---------0------0h2-------------|
D|-0---------0-----------0-----------2---2------------------|
A|----------------------------------------------------------|
E|----------------------------------------------------------|
Suggest correction
comments
print report bad tab
2 comments total.
0 reply
Hoderz69 10 Feb 16, 2003 07:00 PM

In the chorus you have the chords as Dm Bb F A C,but it Should be,Dm Bb F A D

0 reply
Big Spender 30 Oct 20, 2009 06:55 PM

^^ That D sounds wrong to me, could be my ear but C sounds fine?

guest
You may want to rate the tab now too:
select rating
Wanna post a correction for this tab? Suggest correction