Oops, an error
Loading. Please wait.

Love Walked In Tab

version 1
version 1

Whole song

Interactive

44,948 views 63 this week
9 commentsread comments
1 2 3 4 5
x 19
add to favorites
launch autoscroll
font size
0
reset
how to read this tab
guitar tuner
Autoscroll
slow
fast
+/-
esc
set tempo
stop
Help us to improve Ultimate-Guitar.com Take our survey!
×
Author
love walked in
thunder
tabbed by lance

Intro: (accoutsic)
e---------5-----3------3--------------1---0------------------|
B-------6-------5--------5----------3-----1----------1-------|
G-----7---------5----------5------2-------0-----0h2----------|
D---0-----------0---0-----------0---------2------------------|
A-----------------------------------------0------------------|
E------------------------------------------------------------|

e---------5-----3------3--------------1---3------------------|
B-------6-------5--------5----------3-----3------------------|
G-----7---------5----------5------2-------0------------------|
D---0-----------0---0-----------0---------0------------------|
A-----------------------------------------2------------------|
E-----------------------------------------3------------------|


Verse: (accoustic)

Dm
   So tired of waiting, I walk an empty land
Bb
   I was lookin for something, to help me understand
Gm                   C           Am
   but bad love kept turning, my dreams into sand

e---------5-----3------3--------------1---0------------------|
B-------6-------5--------5----------3-----1----------1-------|
G-----7---------5----------5------2-------0-----0h2----------|
D---0-----------0---0-----------0---------2------------------|
A-----------------------------------------0------------------|
E------------------------------------------------------------|

Dm
   I didnt want feelings, i had my share of friends
Bb
   I wanted somebody, more special than the rest.
Gm                           C         Am
   I was aching inside, like i was approaching the end.

e---------5-----3------3--------------1---0------------------|
B-------6-------5--------5----------3-----1----------1-------|
G-----7---------5----------5------2-------0-----0h2----------|
D---0-----------0---0-----------0---------2------------------|
A-----------------------------------------0------------------|
E------------------------------------------------------------|


Link:
F                              C
   Just about that moment, the timing was so right
Dm                     C            Dm         C
   You appeared like a vision, send down to my life
Bb                                  B
   I thought i was dreaming, when i saw you that night

Chourus: (distorded) give the gibson some welly!

--------------------------------------------------------------|
--------------------------------------------------------------|
-----------7-----------3----------------------5/7\5-----------|
-----------7-----------3-------------3--------5/7\5-----------|
-----------5-----------1-------------3--------3/5\3-----------|
-------------------------------------1------------------------|
Thats when love walked in through my door

--------------------------------------------------------------|
--------------------------------------------------------------|
--------7-----3-----------------------------------------------|
--------7-----3---------------------3-------------------------|
--------5-----1---------------------3---------------0-3-------|
------------------------------------1--------0-1-3------------|
That familiar feeling, i had once before

--------------------------------------------------------------|
--------------------------------------------------------------|
-----------7-----------3----------------------5---------------|
-----------7-----------3-------------3--------5---------------|
-----------5-----------1-------------3--------3---------------|
-------------------------------------1------------------------|
           Love walked in through my door

--------------------------------------------------------------|
--------------------------------------------------------------|
---------------3---------------5-----------------------3------|
---------------3---------------5-----------------------3----5-|
---------------1---------------3-----------------------1----5-|
------------------------------------------------------------3-|
And it felt so strange, like a long lost freind that hadn't changed

--------------------------------------------------------------|
--------------------------------------------------------------|
-----------2-X-2-X-2------------------------------------------|
-----------2-X-2-X-2------------------------------------------|
-----------0-X-0-X-0------------------------------------------|
--------------------------------------------------------------|
giving me hope again...  LOVE WALKED IN!!

Interlude:

--------------8b10~~--------------------------8b10~~----------------|
--------------------------------------------------------------------|
-------------------------------------------------------3-3-3/5\3/5--|
----3p2p0------------3 3 3/5\3/5-----3p2p0-------------3-3-3/5\3/5--|
---------------------3-3-3/5\3/5-----------------------1-1-1/3\1/3--|
---------------------1-1-1/3\1/3------------------------------------|

Solo:
----------------------------------------------------------------------------|
--------------10-11-10~~----------------------------------------------------|
--------10h12------------10h12p1012~~-10-12-12b-12b-12b~~p10-------10h12-10-|
--10h12-------------------------------------------------------12~~----------|
----------------------------------------------------------------------------|
----------------------------------------------------------------------------|

(rake)
--^15b~~--r15-13-15-13--------12h13p12------------12h13p12-------------------|
--^-------------------15~~--------------15-13-15-----------15-13-15--10b-----|
--^----------------------------------------------------------------------12~-|
-----------------------------------------------------------------------------|
-----------------------------------------------------------------------------|
-----------------------------------------------------------------------------|

cant figure out next bit, too fast, jus go off on one!! key of D


Back to intro riff (once only):
e---------5-----3------3--------------1---0------------------|
B-------6-------5--------5----------3-----1----------1-------|
G-----7---------5----------5------2-------0-----0h2----------|
D---0-----------0---0-----------0---------2------------------|
A-----------------------------------------0------------------|
E------------------------------------------------------------|

Repeat link:

F                              C
   Just about that moment, the timing was so right
Dm                     C            Dm         C
   You appeared like a vision, send down to my life
Bb                                  B                    Fill:
   I thought i was dreaming, when i saw you that night.. e---15b-r-p-13-----|
                                                         B--------------15~-|


Repeat chourus twice:

--------------------------------------------------------------|
--------------------------------------------------------------|
-----------7-----------3----------------------5/7\5-----------|
-----------7-----------3-------------3--------5/7\5-----------|
-----------5-----------1-------------3--------3/5\3-----------|
-------------------------------------1------------------------|
Thats when love walked in through my door
                                         (add slide)
--------------------------------------------------------------|
--------------------------------------------------------------|
--------7-----3-----------------------------------------------|
--------7-----3---------------------3-------------------------|
--------5-----1---------------------3--------------------0-3--|
------------------------------------1-----14///---0-1-3-------|
That familiar feeling, i had once before

--------------------------------------------------------------|
--------------------------------------------------------------|
-----------7-----------3----------------------5---------------|
-----------7-----------3-------------3--------5---------------|
-----------5-----------1-------------3--------3---------------|
-------------------------------------1------------------------|
           Love walked in through my door

Fade out....
and thats it, the complete tab for one of the best rock songs ever written, and it only 
to no. 18 in the charts....
let me know what you think: lance_walford@fsmail.net
Suggest correction
comments
print report bad tab
9 comments total. Showing first comments.
0 reply
NileFTW 10 Aug 10, 2006 03:17 PM

This owns, thanks dude.

0 reply
Oasis-fanatic 120 Aug 19, 2006 04:34 AM

5 stars, 100% tab thx man :D

0 reply
mutha_hooker 10 Nov 08, 2006 03:51 PM

great song,great tab, can't wait to see Thunder live!

guest
You may want to rate the tab now too:
select rating
Wanna post a correction for this tab? Suggest correction