Oops, an error
Loading. Please wait.

Until My Dying Day Tab

3,546 views 1 this week
no commentswrite comment
1 2 3 4 5
please rate
add to favorites
launch autoscroll
font size
0
reset
how to read this tab
guitar tuner
Tab Pro tools
  • play this tab
  • loop segment
  • change instrument
  • show fretboard
  • metronome
×
Best way to learn
"Until My Dying Day"
Autoscroll
slow
fast
+/-
esc
set tempo
stop
Song:Until My Dying Day
Album:Back Street Symphony
Guitarist:Luke Morley
Tabbed By:Smurfboy

The following chords show the changes not how you play it. Im sorry but I just
havent got time to do each individual note so Im afraid your gonna have to figure
this one out for yourself.

Intro:the first guitar is an Acoustic playing the rhythm. And the second guitar
is an electric which is playing the lead
   
   D          D7           G          Gm
|--2---------|-2--------|--3--------|--3----------|
|--3---------|-1--------|--3--------|--3----------|
|--2---------|-2--------|--0--------|--3----------|
|--0---------|-0--------|--0--------|--5----------|
|------------|----------|--2--------|--5----------|
|------------|----------|--3--------|--3----------|
|                                                 |
|------------|----------|-----------|-------------|
|--10----10/-|-15-----15|-12------15|-11^---------| Note this ^ is a 
|------------|----------|-----------|-------------| Bend/Vibrato 
|------------|----------|-----------|-------------| Technique
|------------|----------|-----------|-------------|
|------------|----------|-----------|-------------|

   D          D7           G           Gm
|--2---------|-2--------|--3--------|--3----------|
|--3---------|-1--------|--3--------|--3----------|
|--2---------|-2--------|--0--------|--3----------|
|--0---------|-0--------|--0--------|--5----------|
|------------|----------|--2--------|--5----------|
|------------|----------|--3--------|--3----------|
|                                                 |
|------------|----------|-----------|-------------|
|--10----10/-|-15-----15|-12----15b-l--r13--12--11|
|------------|----------|-----------|-------------|
|------------|----------|-----------|-------------|
|------------|----------|-----------|-------------|
|------------|----------|-----------|-------------|

VERSE
I think that one thing I can really point out is that when you change chords you
should really express the first stroke.
D                    D7                  G
I can see the fading sun  sinking at the edge of town
        Gm                 D                             D7
and its one more day thats gone   I'm thinking 'bout the past
                  G                   Gm
and the time that slipped away but I can't change what I've

  F               Fsus4      F
done  chasing after foolish dreams
--1-----------------1--------1------
--1-----------------1--------1------
--2-----------------3--------2------
--3-----------------3--------3------
--3-----------------3--------3------
--1-----------------1--------1------

  F                                Fsus4        F
         I should have let go but I just can't seem to 
--1----------------------------------1----------1------
--1----------------------------------1----------1------
--2----------------------------------3----------2------
--3----------------------------------3----------3------
--3----------------------------------3----------3------
--1----------------------------------1----------1------

     Asus4                   A
 stop  I don't deserve your loving baby
------0----------------------0----------
------3----------------------2----------
------2----------------------2----------
------2----------------------2----------
------0----------------------0----------
----------------------------------------

  Asus4                       A
         I don't know why you stay
----0-------------------------0-------------||
----3-------------------------2-------------||
----2-------------------------2-------------||
----2-------------------------2-------------||
----0-------------------------0-------------||
--------------------------------------------||

D                          D7                     G
There's a child within the man and it's keeping me keep in on
         Gm                D                     D7
Yeah you always understand  The future can't be planned 
                    G                     Gm
But I'm gonna keep fighting on while I've still got two strong hands
F             Fsus4    F
 Maybe I'll change some day
F            Fsus4      F
 Maybe I'll chase those dreams away
Asus4              A
  I need you by my side now baby
Asus4                             A
  Cos your the price that I won't pay....


RIFF A
     Turn the Distortion pedal on- This part is so cool, although I am not too
sure about the 0040020 2h4  part.              
   D/F#                       
|-------------------------------------------------------------------|
|----3--3--3--------------------------------------------------------|
|----2--2--2------0--0--0-------------------------------------------|
|----4--4--4------0--0--0----------0--------------------2-4-----2---|
|----x--x--x------x--x--x-----2^4----0-0-4-0-0-2-0--3h4-----3bh-0---|
|----2--2--2------3--3--3-------------------------------------------|
     T
                                                  Girl your the 
|------------------------------------------------|
|----3--3--3---------------------------------3---|
|----2--2--2------0--0--0-------------2--2---4---|
|----4--4--4------0--0--0-------------2--2---4---|
|----x--x--x------x--x--x-----2-4-5---0--0---2---|
|----2--2--2------3--3--3------------------------|
     T

     only one to light a fire inside me                          your the
|-------------------------------------------------------------------|
|----3--3--3--------------------------------------------------------|
|----2--2--2------0--0--0-------------------------------------------|
|----4--4--4------0--0--0----------0--------------------2-4-----2---|
|----x--x--x------x--x--x-----2^4----0-0-4-0-0-2-0--3^4-----3bh-0---|
|----2--2--2------3--3--3-------------------------------------------|
     T

 only woman that can make me feel this way
|------------------------------------------------|
|----3--3--3---------------------------------3---|
|----2--2--2------0--0--0-------------2--2---4---|
|----4--4--4------0--0--0-------------2--2---4---|
|----x--x--x------x--x--x-----2-4-5---0--0---2---|
|----2--2--2------3--3--3------------------------|
     T

  I want to stay with you forever I'll never let you go
|----------2-----------------3----------2-------------3----|
|----------3-----------------3----------3-------------3----|
|----------2-----------------0----------2-------------0----|
|----------4-----------------0----------4-------------0----|
|----------x-----------------x----------0-------------2----|
|----------2-----------------3-----------------------------|
           T

   PM.....
|--------------------
|--------------------
|-----------5----0---
|--5-5-5-5--5----0---
|--3-3-3-3--3----x---
|----------------3---

 RIFF B  
I think, I may be wrong that there is very slight palm muting is used here

|----8-------7------5-----7-----5---7---|-------|
|-------5-5----5-5----5-5---5-5---5-----|-------|
|---------------------------------------|--o/o--|
|---------------------------------------|-------|
|---------------------------------------|-------|
|---------------------------------------|-------|

RIFF C
  oo...
|------------------------------|-------------------------|
|------------------------------|-------------------------|
|------------------------------|-------------------------|
|----------7--------0-5---5^7--|----------7------5----4--|
|--0-0-0-0------5^7-----7------|--0-0-0-0------0----0----|
|------------------------------|-------------------------|

|------------------------------|--------------------|
|------------------------------|--------------------|
|------------------------------|--------------------|
|----------7--------0-5---5^7--|----------7---------|
|--0-0-0-0------5^7-----7------|--0-0-0-0------5^7--|
|------------------------------|--------------------|
  
  oww
|------------------------------|-------------------------|
|------------------------------|-------------------------|
|------------------------------|-------------------------|
|----------7--------0-5---5^7--|----------7------5----4--|
|--0-0-0-0------5^7-----7------|--0-0-0-0------0----0----|
|------------------------------|-------------------------|

|------------------------------|--------------------|
|------------------------------|--------------------|
|------------------------------|--------------------|
|----------7--------0-5---5^7--|----------7---------|
|--0-0-0-0------5^7-----7------|--0-0-0-0------5^7--|
|------------------------------|--------------------|

This is the SOLO part I am fairly confident about this part and the ^^^ represent
the string bends used in the vibrato. In this case 3.

|---------------------10--------------------------------------|
|-------------------------------------------------------------|
|--7^^^--7--/---12---------9b-r-7---7-9-7^^---------7^9^7-----|
|----------------------------------9----------------------8^^-|
|-------------------------------------------------------------|
|-------------------------------------------------------------|

|-------------------------------------------------------|
|---------------------------------------------------15--|
|--------------------------14--16-16b-r-14----14^16-----|
|-8/10--8--7^^^^--------16-----------------16-----------|
|-------------------------------------------------------|
|-------------------------------------------------------|


|--------15^^-----15--17--18--17--15--17---13^^^^^^^hold|
|--15-17------------------------------------------------|
|-------------------------------------------------------|
|-------------------------------------------------------|
|-------------------------------------------------------|
|-------------------------------------------------------|

               Fsus4      F
 chasing after foolish dreams

  F                                Fsus4        F
         I should have let go but I just can't seem to 

     Asus4                   A
 stop  I don't deserve your loving baby

  Asus4                       A
         I don't know why you stay ye eh eh eh yeah

With RIFF A

Hey baby your the only one to light a fire inside me
Your the only woman that can make me feel this way

          D/F#             G          D/A         G/B
I want to stay with you forever I'll never let you go

                
   PM.....      Until my dying
|--------------------
|--------------------
|-----------5----0---
|--5-5-5-5--5----0---
|--3-3-3-3--3----x---
|----------------3---

   day                                          ooh.......
|----8-------7------5-----7-----5---7---|-------|-------|
|-------5-5----5-5----5-5---5-5---5-----|-------|-------|
|---------------------------------------|--o/o--|--o/o--|
|---------------------------------------|-------|-------|
|---------------------------------------|-------|-------|
|---------------------------------------|-------|-------|
             
             Until my dying day
|----8-------7------5-----7-----5---7---|-------|-------|
|-------5-5----5-5----5-5---5-5---5-----|-------|-------|
|---------------------------------------|--o/o--|--o/o--|
|---------------------------------------|-------|-------|
|---------------------------------------|-------|-------|
|---------------------------------------|-------|-------|
    
     ooooo.....
|----8-------7------5-----7-----5---7---|-------|
|-------5-5----5-5----5-5---5-5---5-----|-------|
|---------------------------------------|--o/o--|
|---------------------------------------|-------|
|---------------------------------------|-------|
|---------------------------------------|-------|

 Keep repeating this until the song fades out
|-------------------------------|-------------------------|
|-------------------------------|-------------------------|
|.------------------------------|-------------------------|
|.----------7--------0-5---5^7--|----------7------5----4--|
|---0-0-0-0------5^7-----7------|--0-0-0-0------0----0----|
|-------------------------------|-------------------------|

|------------------------------|--------------------|
|------------------------------|--------------------|
|------------------------------|-------------------.|
|----------7--------0-5---5^7--|----------7--------.|
|--0-0-0-0------5^7-----7------|--0-0-0-0------5^7--|
|------------------------------|--------------------|
Well if anybody has and questions(not too hard please) you can reach me at
Smurfboy69@hotmail.com. SMURF :-)
comments
We did not receive enough feedback on this tab! Please rate:
print report bad tab
1 2 3 4 5
I want to post or [tab]
guest
You may want to rate the tab now too:
select rating
Please do not post tabs as comments. Select "correction" instead!