Oops, an error
Loading. Please wait.

Bus In These Streets bass

298 views 33 this week
no commentswrite comment
1 2 3 4 5
2 more votes to show rating
add to favorites
×
Save as Personal and add changes to this tab that will be seen only by you. Learn more ›
×
You can save this tab as Personal to edit and correct it or add notes. All changes will be seen only by you. Learn more »
launch autoscroll
font size
0
reset
guitar tuner
edit
Autoscroll
slow
fast
+/-
esc
set tempo
stop
About this tab version
Studio recording from the album "Drunk". Was this info helpful? Yes No
Pretty sure this is (mostly) right for a four-string.
Verbatim, the song would be played on a six-string, but
there are really only a few notes here and there
that I either omitted or changed to make the song easier to play on a four-string.

Play along with the music to get the timing; 
it's actually a relatively simple song after a bit of practice.



G|-------------------------13----12---------10----9-------7---------|
D|----------------------------------12----------------------5--5-5--| x4
A|--13-13-13-12--12--11-11----10--------9--8----7---7-6-5-----------|
E|------------------------------------------------------------------|

G|---------------------|
D|--5--5--5---5--5--5--|
A|---------------------|
E|---------------------|

G|----5-----7-6-----------------------7---7-------7---------|
D|--------------7-------------------------------------------|
A|------------------------6-6-6-6---5---5---5---5---5--5-5--|
E|--5----7---------6-6-6------------------------------------|

G|----7---5-------------7----------7--10--12------12-12-12--|
D|--5---5---5---------7-----5--5----------------------------|
A|-----------------5---------------------------10-----------|
E|------------6--5------------------------------------------|

G|--5---5-5------------------9---------------5---------5--------|
D|-----5-5-5---------------9--7------------3--------5-----------|
A|-----------------------7------7--------1------3-3-------3--3--|
E|-----------7--7--7--7------------5\-1-------------------------|

G|--------12----------------5-4---7-6------------------------------------|
D|-----12----------------------------------8-----------------------------|
A|--10------10-----------------------------------6---6-5--5----5------5--|
E|--------------8-8-6-6---5-----7-----7--6---6----------------5--5-3-----|

G|-----------------------------------------|
D|----5-------7-------------------------5--|
A|------3-------5---5------5/10-------5----|
E|--3-----6-5------5--3--3-------10-3------|

G|-------5-----------------------------------3-------------3-5-------|
D|-----5------------------------7------3-------3-3-------5-----------|
A|--3------3--------5-6-7----------------3-1--------3--3-------3--3--|
E|------------7-7-7-------7-0-5---3--1-------------------------------|

G|-------------------------------------------------------------|
D|----5-------------8-8-8-7------6----------3-2-----------5----|
A|---------------------------------6-----3------5--5-3------5--|
E|--3----8--8--6--5---------5--4-----3----1------------3-------|

G|-----------------------------------------|
D|----8-8---7---6----5------3-2------------|
A|---------------------3----------5-/5-----|
E|--6-----5---4---3------3-1------------3--|


Suggest correction
Creating personal tab
Creating personal tab
You can edit any tab online and save it as your Personal.

You can edit, replace or remove any tab part or add personal notes – all changes will be seen only by you.

Personal tabs can be accessed anytime from any device, even offline.
Learn more »
Give kudos to tab author, rate the tab!
1 2 3 4 5
comments
print report bad tab
guest
Wanna post a correction for this tab? Suggest correction