Oops, an error
Loading. Please wait.

Something In The Air bass

version 1
version 1

Whole song

Interactive

418 views 1 this week
no commentswrite comment
1 2 3 4 5
x 4
add to favorites
×
Save as Personal and add changes to this tab that will be seen only by you. Learn more ›
×
You can save this tab as Personal to edit and correct it or add notes. All changes will be seen only by you. Learn more »
launch autoscroll
font size
0
reset
guitar tuner
edit
Autoscroll
slow
fast
+/-
esc
set tempo
stop
Author
Difficulty
--------------------------------------------------------------------------
                                          Artist - Thunderclap Newman
                                         *****************************
                                          Song - Something In The Air  
                                         *****************************
                                         Album - Hollywood Dream (1970)
                                        ********************************
                                             Tabbed By - Ayreon77
                                            **********************
--------------------------------------------------------------------------
Tuning = Standard      
       
                                                      RIP
                                           Andy "Thunderclap" Newman
                                         Who died today April 1st 2016

INTRO
******
G|----------------------|------------|-----|
D|----------------------|-9--h-------|-----|
A|-----7---9-7---7--7-7-|---7-9--9-9-|-----|
E|-7-9---9-----9--------|------------|-7-7-|


--------------------------
00:13
VERSE 1
******** 
  Call out the instigators......
G|--------|----------|------------|--------|
D|--------|-9--------|-9----------|--------|
A|-7--7-7-|---7--7-7-|---9--9-9-9-|---9--9-|
E|--------|----------|------------|-9------|

      We've got to get together sooner or later.......
G|----------------------|----------|------------|---------------|
D|----------------------|-9--------|-9----------|---------------|
A|-----7---9-7---7--7-7-|---7--7-7-|---9--9-9-9-|---9--9-9-9--9-|
E|-7-9---9-----9--------|----------|------------|-9-------------|


G|---|------|------|------|------|------|------|--------|
D|---|------|------|------|--s---|------|------|--------|
A|-7-|-7--5-|-5--4-|-4--2-|-2\-7-|-7--5-|-5--4-|-4----s-|
E|---|------|------|------|------|------|------|---7-7\-|


--------------------------
CHORUS
*******
  We have got to get it together........
G|------|--------------------|--------------------|-------------s--------------|
D|------|---2---2------------|---2---2------------|---2---2----2\4-2-----------|
A|------|-4---4---4----------|-4---4---4----------|-4---4---4--------4-2---2---|
E|-2--2-|-----------2-2-2-2-2|-----------2-2-2-2-2|----------------------4---0-|

01:00
G|------|------|------|---------|
D|--s---|------|------|---------|
A|-2\-7-|-7--5-|-5--4-|-4-----s-|
E|------|------|------|---7--7\-|


G|----------------------------------------------------------------------|-----------|
D|--------------------------------------11-11---------------------------|-----------|
A|-9--9-9--9-9--9-9--9-9-9-9-9-9--9-9-9-------9--9-9-9--11-11-11-11-----|--h---9----|
E|------------------------------------------------------------------9-9-|-9-11---11-|


--------------------------
01:16
VERSE 2
********
  Lock up the streets and houses.......
G|--------|-----------|--------------|-----------|
D|--------|-11--------|-11-----------|-----------|
A|-9--9-9-|----9--9-9-|----11--11-11-|----11--11-|
E|--------|-----------|--------------|-11--------|

      We've got to get together sooner or later
G|--------------------------|-----------|----------|----------------|-------|------------------|
D|--------------------------|-11--------|-11-11-11-|----------------|-------|------------------|
A|--h---9----11-9----9--9-9-|----9--9-9-|----------|-9-11--11-11-11-|----11-|------9-11-9------|
E|-9-11---11------11--------|-----------|----------|----------------|-11----|-9-11--------11-9-|


G|---|------|------|------|------|------|------|------|---|
D|---|------|------|------|------|------|------|------|---|
A|-9-|-9--7-|-7--6-|-6--4-|-4--9-|-9--7-|-7--6-|-6--4-|-4-|
E|---|------|------|------|------|------|------|------|---|


--------------------------
01:48
CHORUS
*******
  We have got to get it together........
G|----------------|-------|-----------------------|-------|-----------------------|
D|----------------|-------|-----------------------|-------|-----------------------|
A|-11-11-11-11-11-|-11-11-|------9-11-11-11-11-11-|-11-11-|------9-11-11-11-11-11-|
E|----------------|-------|-9-11------------------|-------|-9-11------------------|

                                                  Now
G|-------|-----------------------|-------|-----------|
D|-------|-----------------------|-------|-----------|
A|-11-11-|------9-11-11-11-11-11-|-11-11-|------11-9-|
E|-------|-9-11------------------|-------|-9-11------|


--------------------------
01:59
PIANO BREAK
************

--------------------------
02:19
BRIDGE
*******
G|---------|---------|---------|---------|---------|---------|---------|------------|
D|---------|---------|---------|---------|---------|---------|---------|------------|
A|---------|-8--8--8-|---------|-8--8--8-|-8--8--8-|-8--8--8-|---------|-10--10--10-|
E|-8--8--8-|---------|-8--8--8-|---------|---------|---------|-8--8--8-|------------|


G|---------|---------|---------|---------|---------|------------------|
D|---------|---------|---------|---------|---------|------------------|
A|---------|-8--8--8-|---------|-8--8--8-|---------|-11-10-11-10----8-|
E|-8--8--8-|---------|-8--8--8-|---------|-8--8--8-|-------------8----|

02:57
G|-------------|-------------|-------------|----------------------|
D|-------------|-------------|-------------|----------------------|
A|-11-11-11-11-|-11-11-11-11-|-------------|-------11----13-11----|
E|-------------|-------------|-11-11-11-11-|-11-13----13-------13-|


G|-------------|-------------|-------------|----------------------|
D|-------------|-------------|-------------|----------------------|
A|-11-11-11-11-|-11-11-11-11-|-------------|-------11----13-11----|
E|-------------|-------------|-11-11-11-11-|-11-13----13-------13-|


--------------------------
03:08
VERSE 3
******** 
  Hand out the arms and ammo.........
G|--------------|--------------------|--------------------|--------------|-------|
D|--------------|-13-13--------------|-13-13--------------|--------------|-------|
A|-11--11-11-11-|-------11--11-11-11-|-------13--13-13-13-|-13--------13-|-13-13-|
E|--------------|--------------------|--------------------|-----13-13----|-------|

        We've got to get together sooner or later
G|----------------------|--------------|-----------------------|------------------------|-------|-------|
D|----------------------|--------------|----13-13--------------|----13-13---------------|-------|-------|
A|-------11----13-11----|-11--11-11-11-|-11-------11--11-11-11-|-11-------13--13-13--13-|----13-|-13-13-|
E|-11-13----13-------13-|--------------|-----------------------|------------------------|-13----|-------|


G|-------------|
D|-------------|
A|-------11-13-|
E|-11-13-------|


G|----|-------|------|------|-------|-------|------|------|---|
D|----|-------|------|------|-------|-------|------|------|---|
A|-11-|-11--9-|-9--8-|-8--6-|-6--11-|-11--9-|-9--8-|-8--6-|-6-|
E|----|-------|------|------|-------|-------|------|------|---|


--------------------------
03:40
CHORUS
*******
  We have got to get it together........
G|----------------|----------------|----------------|--s--------------------|
D|-8--8-8-8---8---|-8--8-8-8---8---|-8--8-8-8---8---|-6\8-6--s--------------|
A|----------8---8-|----------8---8-|----------8---8-|-------6\8-6-----------|
E|----------------|----------------|----------------|-------------8-6--4~~~-|



ENJOY........

            
            
Suggest correction
Creating personal tab
Creating personal tab
You can edit any tab online and save it as your Personal.

You can edit, replace or remove any tab part or add personal notes – all changes will be seen only by you.

Personal tabs can be accessed anytime from any device, even offline.
Learn more »
comments
print report bad tab
guest
You may want to rate the tab now too:
select rating
Wanna post a correction for this tab? Suggest correction