Oops, an error
Loading. Please wait.

Something In The Air chords

version 1
version 1

Whole song

Interactive

1,972 views 36 this week
2 commentsread comments
1 2 3 4 5
x 10
add to favorites
×
Save as Personal and add changes to this tab that will be seen only by you. Learn more ›
×
You can save this tab as Personal to edit and correct it or add notes. All changes will be seen only by you. Learn more »
launch autoscroll
font size
0
reset
transpose
0
reset
simplify chords
display chords
guitar tuner
edit
Autoscroll
slow
fast
+/-
esc
set tempo
stop
Strumming
There is no strumming pattern for this song yet. and get +5 IQ
`Song: Something in the air
Artist: Thunderclap Newman
Composer: Speedy Keen

Tabbed by DJ ('DiddyD' on ultimateGuitar.com)
27h Jan 2017

TUNING: E-B-E-G#-B-E (Open E tuning)
5th string tuned up to B
4th string tuned up to E
3rd string tuned up to G#

N.B.
Please IGNORE ANY POP-UP CHORD BOXES the website
might automatically suggest and use the typed shapes
shown below:

[Verses & Choruses]
E     = 000000   F#    = 222222    G#     = 444444
F#m11 = 220100   G#m11 = 442322    A#m11  = 664544
E *   = x500xx   F# *  = xx222x    G# *   = xx444x
E7/D  = x300xx   F#7/E = xx022x    G#7/F# = xx244x
E6/C# = x200xx   F6/D# = x422xx    G#6/F  = x644xx
E/B   = x000xx   F#/C# = x222xx    G#/D#  = x444xx

Alternative shape for m11th chords:
F#m11 = 022100   G#m11 = 244322    A#m11  = 466544

[Piano break]
F#7 = 222252   E7  = 030000   G7 = 333363   G# = 444444
F#  = 222222   E7+ = 030010   G6 = 333353   G  = 333333
F#6 = 222242   F   = 111111   C7 = x10210
               F6  = 111131   F7 = 111141

^ = Emphasised beats
*************************************************************

[Intro]
   E             F#m11           E             F#m11
|  /  /  /  /  |  /  /  /  /  |  /  /  /  /  |  /  /  /  /  |


[Verse 1]
  E
Call out the instigators,
                  F#m11
Because there's something in the air,
              E
We've got to get together, sooner or later,
             F#m11
Because the revolution's here, and you know it's...

     E *     E7/D       E6/C#     E/B
 ...right!
e |-------------------|--------------------|
B |-------------------|--------------------|
G#|------0--------0---|------0--------0----|
E |----0--------0-----|----0--------0------|
B |--5-----5--3-----3-|--2-----2--0-----0--|
E |-------------------|--------------------|

     E *       E7/D           E6/C#     E/B
       And you know that it's right!
e |--------------------------|---------------------|
B |--------------------------|---------------------|
G#|------0------------0------|-------0--------0----|
E |----0-----------0---------|----0---------0------|
B |--5------5---3---------3--|--2------2--0-----0--|
E |--------------------------|---------------------|


[Chorus]
F#m11
       We have got to get it together,
F#m11
       We have got to get it together...
     E *     E7/D       E6/C#     E/B
 ...now!
e |-------------------|--------------------|
B |-------------------|--------------------|
G#|------0--------0---|------0--------0----|
E |----0--------0-----|----0--------0------|
B |--5-----5--3-----3-|--2-----2--0-----0--|
E |-------------------|--------------------|

     E *     E7/D       E6/C#     E/B
e |-------------------|--------------------|
B |-------------------|--------------------|
G#|------0--------0---|------0--------0----|
E |----0--------0-----|----0--------0------|
B |--5-----5--3-----3-|--2-----2--0-----0--|
E |-------------------|--------------------|


[Verse 2]
   F#            G#m11           F#           G#m11
|  /  /  /  /  |  /  /  /  /  |  /  /  /  /  |  /  /  /  /  |

 F#
Lock up the streets and houses,
                  G#m11
Because there's something in the air,
              F#
We've got to get together, sooner or later,
               G#m11
Because the revolution's here, and you know it's...

    F# *     F#7/E        F6/D#    F#/C#
 ...right!
e |--------------------|--------------------|
B |------2--------2----|--------------------|
G#|----2--------2------|------2--------2----|
E |--2-----2--0-----0--|----2--------2------|
B |--------------------|--4-----4--2-----2--|
E |--------------------|--------------------|

    F# *       F#7/E          F6/D#    F#/C#
       And you know that it's right!
e |--------------------------|--------------------|
B |------2------------2------|--------------------|
G#|----2-----------2---------|------2--------2----|
E |--2-------2---0--------0--|----2--------2------|
B |--------------------------|--4-----4--2-----2--|
E |--------------------------|--------------------|


[Chorus]
G#m11
       We have got to get it together,
G#m11
       We have got to get it together...


[Piano Break]
...now!
   F#7     F#  F#6     F#  F#6 F# F#6
|  /_/ /_/ /_/ /_/  |  /_/ /_/ /_/ /_/  |

   E7  E7+  E7  E7+    E7  E7+  E7  E7+
|  /_/ /_/ /_/ /_/  |  /_/ /_/ /_/ /_/  |

   F   F6  F   F6      F   F6  F   F6
|  /_/ /_/ /_/ /_/  |  /_/ /_/ /_/ /_/  |

   G7                  G6
|  /_/ /_/ /_/ /_/  |  /_/ /_/ /_/ /_/  |


  C7             F7             C7             F7
| /  /  /_/  / | /  /  /_/  / | /  /  /_/  / | /  /  /_/  / |
  ^  ^  ^ ^  ^   ^  ^  ^ ^  ^   ^  ^  ^ ^  ^   ^  ^  ^ ^  ^
  F7                            C7             G7
| /  /  /_/  / | /  /  /_/  / | /  /  /_/  / | /  /  /_/  / |
  ^  ^  ^ ^  ^   ^  ^  ^ ^  ^   ^  ^  ^ ^  ^   ^  ^  ^ ^  ^

  C7             F7             C7             F7
| /  /  /_/  / | /  /  /_/  / | /  /  /_/  / | /  /  /_/  / |
  ^  ^  ^ ^  ^   ^  ^  ^ ^  ^   ^  ^  ^ ^  ^   ^  ^  ^ ^  ^
  C7                G#  G  G# G   C7      F7
| /_/ /_/ /_/ /_/ |  /  /  /  / | /_/ /_/ /_/ /_/ |


[Verse 3]
   G#            A#m11           G#           A#m11
|  /  /  /  /  |  /  /  /  /  |  /  /  /  /  |  /  /  /  /  |

 G#
Hand out the arms and ammo,
               A#m11
We're going to blast our way through here,
              G#
We've got to get together sooner or later,
               A#m11
Because the revolution's here, and you know it's...

    G# *        G#7/F#          G#6/F     G#/D#
...right,
e |---------------------------|---------------------|
B |-------4------------4------|---------------------|
G#|----4------------4---------|------4---------4----|
E |--4-------4---2--------2---|----4---------4------|
B |---------------------------|--6-----6---4-----4--|
E |---------------------------|---------------------|

    G# *        G#7/F#         G#6/F     G#/D#
        And you know that it's right!
e |---------------------------|---------------------|
B |-------4------------4------|---------------------|
G#|----4------------4---------|------4---------4----|
E |--4-------4---2--------2---|----4---------4------|
B |---------------------------|--6-----6---4-----4--|
E |---------------------------|---------------------|


[Chorus]
A#m11
       We have got to get it together,
A#m11                                  G#
       We have got to get it together now!

            
            
Suggest correction
Creating personal tab
Creating personal tab
You can edit any tab online and save it as your Personal.

You can edit, replace or remove any tab part or add personal notes – all changes will be seen only by you.

Personal tabs can be accessed anytime from any device, even offline.
Learn more »
comments
print report bad tab
2 comments total.
+1 reply
maguri [tm] 31,600 Apr 08, 2017 08:37 AM

Great one with the open tuning and everything - so much fun to play!

+1 reply
Mats Fagergren 2,159 May 08, 2017 01:06 AM

my God.. Just to figure out the tuning and then rhese great chords... I am impressed.

guest
You may want to rate the tab now too:
select rating
Wanna post a correction for this tab? Suggest correction