Oops, an error
Loading. Please wait.

Burn The Ice tab

108 views 1 this week
no commentswrite comment
1 2 3 4 5
3 more votes to show rating
add to favorites
×
Save as Personal and add changes to this tab that will be seen only by you. Learn more ›
×
You can save this tab as Personal to edit and correct it or add notes. All changes will be seen only by you. Learn more »
launch autoscroll
font size
0
reset
how to read this tab
guitar tuner
edit
Autoscroll
slow
fast
+/-
esc
set tempo
stop
Author
Difficulty
Thunderstorm
Burn the Ice

Tempo=147


Intro
     Q    H.              Q.     E  E  E  E  E     E  E  H.            
E||--------------------|------------------------|---------------------|
B||--------------------|------------------------|---------------------|
G||--9----L------------|--L------5--L--7--L--9--|--L--L--L------------|
D||--9----L------------|--L------5--L--7--L--9--|--L--L--L------------|
A||--7----L------------|--L------3--L--5--L--7--|--L--L--L------------|
E||--0----L------------|--L---------------------|---------------------|


           |-----3----|                                                   
  H        Q    Q     Q       Q    H.              Q.     E  E  E  E  E   
---------------------------|--------------------|------------------------|
---------------------------|--------------------|------------------------|
--L------------------------|--9----L------------|--L------5--L--7--L--9--|
--L--------5----7----10----|--9----L------------|--L------5--L--7--L--9--|
--L--------3----5-----8----|--7----L------------|--L------3--L--5--L--7--|
---------------------------|--0----L------------|--L---------------------|


                                                        PM PM PM PM PM PM PM  
  H.           E   E     E   E    E  E  Q.     E     E  E  E  E  E  E  E  E   
----------------------|---------------------------|--------------------------|
------------------10--|--L--12p--10--8--L---------|--------------------------|
--L------------L--11--|--L--11----L--9--L---------|--------------------------|
--L------------L------|---------------------------|--------------------------|
--L------------L------|------------------------2--|--L-----------------------|
----------------------|------------------------0--|--L--0--0--0--0--0--0--0--|


  PM PM PM PM PM PM PM PM    PM PM PM PM PM PM PM PM  
  E  E  E  E  E  E  E  E     E  E  E  E  E  E  E  E   
--------------------------|--------------------------|
--------------------------|--------------------------|
--------------------------|--------------------------|
--------------------------|--------------------------|
--------------------------|--------------------------|
--0--0--0--0--0--0--0--0--|--0--0--0--0--0--0--0--0--|


                            Segno
  PM PM PM                        PM PM PM PM PM PM PM  
  E  E  E  E  E  E  E  E       E  E  E  E  E  E  E  E   
--------------------------||---------------------------|
--------------5-----------||---------------------------|
-----------4-----3--------||*--------------------------|
--------------------5--2--||*--9-----------------------|
--------------------------||---7-----------------------|
--0--0--0-----------------||------0--0--0--0--0--0--0--|


  PM PM PM PM PM PM PM PM    PM PM PM PM PM PM PM                           
  E  E  E  E  E  E  E  E     E  E  E  E  E  E  E  E     Q.     H        E   
--------------------------|--------------------------|---------------------|
--------------------------|--------------------------|---------------------|
--------------------------|-----------------------7--|--L------5--------7--|
--------------------------|-----------------------7--|--L------5--------7--|
--------------------------|-----------------------5--|--L------3--------5--|
--0--0--0--0--0--0--0--0--|--0--0--0--0--0--0--0-----|---------------------|


  Q.      Q     Q    E     W                    Q.      Q    Q    E   
------------------------|-------------------|------------------------|
------------------------|-------------------|------------------------|
--L---------------------|-------------------|------------------------|
--L------12----12----9--|--L----------------|--10------10----7----9--|
--L------10-----9----7--|--L----------------|---8-------8----5----7--|
------------------------|-------------------|------------------------|


  W                   Q.     E  E  E  E  E     W                 
-------------------|------------------------|-------------------|
-------------------|------------5-----------|-------------------|
-------------------|---------4-----3-----6--|-------------------|
--L----------------|--L---------------5-----|--9----------------|
--L----------------|--L---------------------|--7----------------|
-------------------|------------------------|-------------------|


  E   E  Q     Q    Q       Q.     E  Q    Q       E  E  Q    Q    Q     
-------------------------|----------------------|-----------------------|
-------------------------|----------------------|-----------------------|
-------------------------|----------------------|-----------------------|
--L--10--L----10----7----|----------------------|-----------------------|
--L---8--L-----8----5----|--7------5--L----3----|--L--2--L----3----5----|
-------------------------|----------------------|-----------------------|


Verse
  H        E   E   E   E     H        E  E  E  E   
--------------------------|-----------------------|
--------------------------|-----------------------|
--------------------------|-----------------------|
--9--------L--11--12--11--|--L--------L--9--7--9--|
--7--------L---9--10---9--|--L--------L--7--5--7--|
--------------------------|-----------------------|


     PM PM PM PM PM PM PM PM PM    PM PM PM PM PM              
  E  E  S  S  E  E  E  S  S  E     E  E  E  S  S  E  E  E  E   
--------------------------------|-----------------------------|
--------------------------------|-----------------------------|
--------------------------------|-----------------------------|
--L-----------------------------|--------------------------9--|
--L-----------------------------|-----------------8--8--8--7--|
-----0--0--0--0--0--0--0--0--0--|--0--0--0--0--0--6--6--6-----|


  H        E  E  E  E     H        E   E  E  E   
-----------------------|------------------------|
-----------------------|------------------------|
-----------------------|------------------------|
--L--------L--7--5--7--|--L--------L---9--7--5--|
--L--------L--5--3--5--|--L--------L--10--9--7--|
-----------------------|------------------------|


     PM PM PM PM PM PM PM PM PM    PM PM PM PM PM              
  E  E  S  S  E  E  E  S  S  E     E  E  E  S  S  E  E  E  E   
--------------------------------|-----------------------------|
--------------------------------|-----------------------------|
--------------------------------|-----------------------------|
--L-----------------------------|-----------------7--7--7--9--|
--L-----------------------------|-----------------5--5--5--7--|
-----0--0--0--0--0--0--0--0--0--|--0--0--0--0--0--------------|


  E  E  E  E  E  E  E  E     E  E  E  E  E  E  E  E   
--------------------------|--------------------------|
--------------------------|--------------------------|
--------------------4-----|--------------------------|
--L--5--5--5--5--7-----7--|--7--7--7--7--7--5--4--5--|
--L-----------------------|--------------------------|
--------------------------|--------------------------|


     PM PM PM PM PM PM PM PM PM    PM PM PM PM PM              
  E  E  S  S  E  E  E  S  S  E     E  E  S  S  E  E  E  E  E   
--------------------------------|-----------------------------|
--------------------------------|-----------------------------|
--------------------------------|-----------------------------|
--L-----------------------------|--------------------------5--|
--------------------------------|-----------------8--8--8-----|
-----0--0--0--0--0--0--0--0--0--|--0--0--0--0--0--6--6--6-----|


  E  E  E  E  E  E  E  E     E  E  E  E  E  E  E  E   
--------------------------|--------------------------|
--------------------------|--------------------------|
--------------------------|--------------------------|
--5--5--5--5--5--4-----4--|--4--4--4--4--4--5--4-----|
--------------------7-----|-----------------------7--|
--------------------------|--------------------------|


  PM PM    PM    PM    PM    PM PM PM PM PM PM                 
                                               |----3----|     
  E  E  E  E  E  E  E  E     S  S  E  S  S  E  Q    Q    Q     
--------------------------|-----------------------------------|
--------------------------|-----------------------------------|
--------9-----------------|-----------------------------------|
--------------8-----5-----|-----------------------------------|
--------------------------|--------------------2----5----4----|
--0--0-----0-----0-----0--|--0--0--0--0--0--0--0----3----2----|


Chorus
  E  E  E  E  E  E  E  E     E  E  E  E  E  E  E  E   
--------------------------|--------------------------|
--------------------------|--------------------------|
--9--9--9--9--7--7--5--7--|--9--9--7--7--7--7--7--7--|
--7--7--7--7--5--5--5--5--|--7--7--7--7--5--5--5--5--|
--------------------------|--------------------------|
--------------------------|--------------------------|


  E  E  E  E   E   E   E   E     E  E  E  E  E  E  E  E   
------------------------------|--------------------------|
------------------------------|--------------------------|
--9--9--9--9--10--10--10--10--|--9--9--9--9--7--7--7--7--|
--7--7--7--7---7---7---7---7--|--7--7--7--7--5--5--5--5--|
------------------------------|--------------------------|
------------------------------|--------------------------|


  E  E  E  E  E  E  E  E     E  E  E  E  E  E  E  E     H        H         
--------------------------|--------------------------|--------------------|
--------------------------|--------------------------|--------------------|
--9--9--9--9--4--4--5--5--|--7--7--7--7--7--7--7--7--|--9--------5--------|
--7--7--7--7--2--2--3--3--|--5--5--5--5--5--5--5--5--|--7--------3--------|
--------------------------|--------------------------|--------------------|
--------------------------|--------------------------|--------------------|

                                           
                                            Da Coda
  H        H           H        H           H        H           
--------------------|--------------------|---------------------||
--------------------|--------------------|---------------------||
--------------------|-----------5--------|--7--------9--------*||
--5--------7--------|--5--------5--------|--7--------9--------*||
--3--------5--------|--5--------3--------|--5--------7---------||
--------------------|--3-----------------|---------------------||


Guitar Solo
    E  E  E  E  E  E  E  E     E  E  E  E  E  E  E  E   
-------------------------7--|--L--7--------------------|
--7g9--9--7-----7--9--------|--------9--7--9--7-----7--|
-------------9--------9-----|--------------------9-----|
----------------------------|--------------------------|
----------------------------|--------------------------|
----------------------------|--------------------------|


                                            |--3--|        
  E  E  E  E  E  E  E  E     E  E  E  E  E  S  S  S E  E   
-----------------------7--|--L--7-------------------------|
--9--9--7-----7--9--------|--------9--7--9--7h-9p-7----7--|
-----------9--------9-----|-------------------------9-----|
--------------------------|-------------------------------|
--------------------------|-------------------------------|
--------------------------|-------------------------------|


  E  E  E  E  E  E  Q       E  E  E  E  E  E  E  E     E  E  E  E  E  E  Q     
-------------------------|--------------------------|-------------------------|
--9--7--------------7----|--9--7-----------------7--|-------------------------|
--------9--8--L--9-------|--------9--6--L--8--9-----|--9--8--6-----6--8--6----|
-------------------------|--------------------------|-----------9-------------|
-------------------------|--------------------------|-------------------------|
-------------------------|--------------------------|-------------------------|


  H        H             E   E   E   E   E   E   E   E   
---------------------|------------------------------10--|
---------------------|--12--12--10------10--12----------|
--L--------L~--------|--------------12----------12------|
---------------------|----------------------------------|
---------------------|----------------------------------|
---------------------|----------------------------------|


  E   E   E   E   E   E   E   E      E   E   E   E   E   E   E   E   
--L--10--------------------------|------------------------------10--|
---------12--10--12--10------10--|--12--12--10------10--12----------|
-------------------------12------|--------------12----------12------|
---------------------------------|----------------------------------|
---------------------------------|----------------------------------|
---------------------------------|----------------------------------|


  E   E   E   E   E   E   E   E      E  E  E  E  E  E  E  E   
--L--10--------------------------|--12-----------------------|
---------12--10--12--10------10--|---------8-----------------|
-------------------------12------|------9-----------6--------|
---------------------------------|------------9--5-----8--5--|
---------------------------------|---------------------------|
---------------------------------|---------------------------|


Da Segno al Coda      Outro Solo
  W                    E   E   E   E   E   E   E   E   
-------------------|------------------------------13--|
-------------------|--15--15--13------13--15--13------|
--6----------------|--------------15------------------|
-------------------|----------------------------------|
-------------------|----------------------------------|
-------------------|----------------------------------|


  E   E   E   E   E   E   E   E      E   E   E   E   E   E   E   E   
--L--13--------------------------|----------------------------------|
---------15--13--15--13------13--|--15--11--------------------------|
-------------------------15------|----------12----------12----------|
---------------------------------|--------------14--11------14--11--|
---------------------------------|----------------------------------|
---------------------------------|----------------------------------|


   Q      H.             
-----------------------||
-----------------------||
-----------------------||
--14\~-----------------||
-----------------------||
-----------------------||

            
            
Suggest correction
Creating personal tab
Creating personal tab
You can edit any tab online and save it as your Personal.

You can edit, replace or remove any tab part or add personal notes – all changes will be seen only by you.

Personal tabs can be accessed anytime from any device, even offline.
Learn more »
Give kudos to tab author, rate the tab!
1 2 3 4 5
comments
print report bad tab
guest
You may want to rate the tab now too:
select rating
Wanna post a correction for this tab? Suggest correction