Oops, an error
Loading. Please wait.

A Hole In The World Tab

version 2
version 2

Whole song

Interactive

5,470 views 3 this week
1 commentread comment
1 2 3 4 5
excellent!
x 3
add to favorites
launch autoscroll
font size
0
reset
how to read this tab
guitar tuner
Tab Pro tools
  • play this tab
  • loop segment
  • change instrument
  • show fretboard
  • metronome
Autoscroll
slow
fast
+/-
esc
set tempo
stop
Contributor
Tuning
D A D G B E
Thursday - A Hole In The World

Drop D Tuning

4x      
E|---------------0-----------------------------------------------------------| 
B|---------6--------6-----6--------------------------------------------------| 
G|------5-----5--------5-----------------------------------------------------| 
D|---3-----------------------------------------------------------------------| 
A|---------------------------------------------------------------------------| 
D|---------------------------------------------------------------------------| 

x4      
  In this blackout, inertia will hold our thoughts... 
  And the exit sign offers no light to see by
  Can we cast our shadows alone in the dark? 
E|---------------------------------------------------------------------------| 
B|---------------------------------------------------------------------------| 
G|---------------------------------------------------------------------------| 
D|--3-3-3-3-3-3-3-3-3-3-3-3----5-5-5-5-5-5-5-5-5-5-5-5----0-0-0-0-0-0--------| 
A|--3-3-3-3-3-3-3-3-3-3-3-3----5-5-5-5-5-5-5-5-5-5-5-5----0-0-0-0-0-0--------| 
D|--3-3-3-3-3-3-3-3-3-3-3-3----5-5-5-5-5-5-5-5-5-5-5-5----0-0-0-0-0-0--------| 
                                                     . . . . . . . . . . ect

 I can't see...                   without you.
E|---------------------------------------------------------------------------| 
B|---------------------------------------------------------------------------| 
G|-------------------------------10-10-10-10-10-10-10-9--9--9--9--9--9--9--9-| 
D|---5-5--5-5--5-5--5-5--8--8-8--8--8--8--8--8--8--8--8--8--8--8--8--8--8--8-| 
A|---5-5--5-5--5-5--5-5--8--8-8--8--8--8--8--8--8--8--8--8--8--8--8--8--8--8-| 
D|---5-5--5-5--5-5--5-5--8--8-8--8--8--8--8--8--8--8--8--8--8--8--8--8--8--8-|
    .........................


    
    When the world is crashing down,      <---------2x-------->    
E|--------------------------------------------------------------------|
B|--------------------------------------------------------------------|
G|----------------------------------------------9h10-9h10-9h10--------|
D|---3-3-3-3-3-3-3-3---5-5-5-5-5-5-5-5---0--0---0----0----0-----------|
A|---3-3-3-3-3-3-3-3---5-5-5-5-5-5-5-5---0--0-------------------------|
D|---3-3-3-3-3-3-3-3---5-5-5-5-5-5-5-5---0--0-------------------------|

| Part with it,                  start over.
E|---------------------------------------------------------------------------| 
B|---------------------------------------------------------------------------| 
G|-------------------------------10-10-10-10-10-10-10-9--9--9--9--9--9--9--9-| 
D|---5-5--5-5--5-5--5-5--8--8-8--8--8--8--8--8--8--8--8--8--8--8--8--8--8--8-| 
A|---5-5--5-5--5-5--5-5--8--8-8--8--8--8--8--8--8--8--8--8--8--8--8--8--8--8-| 
D|---5-5--5-5--5-5--5-5--8--8-8--8--8--8--8--8--8--8--8--8--8--8--8--8--8--8-|
|    ........................

     When the world is crashing down,
E|--------------------------------------------------------------------|
B|--------------------------------------------------------------------|
G|----------------------------------------------9h10-9h10-9h10--------|
D|---3-3-3-3-3-3-3-3---5-5-5-5-5-5-5-5---0--0---0----0----0-----------|
A|---3-3-3-3-3-3-3-3---5-5-5-5-5-5-5-5---0--0-------------------------|
D|---3-3-3-3-3-3-3-3---5-5-5-5-5-5-5-5---0--0-------------------------|

|   These notes     will fold themselves.
E|--------------------------------------------------------------------|
B|--------------------------------------------------------------------|
G|----------------------------------------------9h10-9h10-9h10--------|
D|---3-3-3-3-3-3-3-3---5-5-5-5-5-5-5-5---0--0---0----0----0-----------|
A|---3-3-3-3-3-3-3-3---5-5-5-5-5-5-5-5---0--0-------------------------|
D|---3-3-3-3-3-3-3-3---5-5-5-5-5-5-5-5---0--0-------------------------|



 Standing at the margin's edge to see where the daybreak end, You can find compassion here,
E|---------------------------------------------------------------------------| 
B|---------------------------------------------------------------------------| 
G|---------------------------------------------------------------------------| 
D|-5-5-5-5-5-5-5--8-8-8-8-8-8-8-8--3-3-3-3-3-3-3-3--5-5--5-5-5--5-5-5--5-5-5-| 
A|-5-5-5-5-5-5-5--8-8-8-8-8-8-8-8--3-3-3-3-3-3-3-3--5-5--5-5-5--5-5-5--5-5-5-| 
D|-5-5-5-5-5-5-5--8-8-8-8-8-8-8-8--3-3-3-3-3-3-3-3--5-5--5-5-5--5-5-5--5-5-5-|

   But the page       turns          too fast ,   We    fell in      this    hole that     opened up...
E|---------------------------------------------------------------------------| 
B|---------------------------------------------------------------------------| 
G|--10-10--9-9-9---10-10-10--9-9-9---10-10-10--9-9-9---10-10-10--9-9-9-------| 
D|--8--8---8-8-8---8--8--8---8-8-8---8--8--8---8-8-8---8--8--8---8-8-8-------| 
A|--8--8---8-8-8---8--8--8---8-8-8---8--8--8---8-8-8---8--8--8---8-8-8-------| 
D|--8--8---8-8-8---8--8--8---8-8-8---8--8--8---8-8-8---8--8--8---8-8-8-------|
                                 (Repeat)
 
  Giving   up     on        hope,

  Living   without        love.

  (We still type black lines...)


  When the world is crashing down        <---------2x-------->     
E|--------------------------------------------------------------------|
B|--------------------------------------------------------------------|
G|----------------------------------------------9h10-9h10-9h10--------|
D|---3-3-3-3-3-3-3-3---5-5-5-5-5-5-5-5---0--0---0----0----0-----------|
A|---3-3-3-3-3-3-3-3---5-5-5-5-5-5-5-5---0--0-------------------------|
D|---3-3-3-3-3-3-3-3---5-5-5-5-5-5-5-5---0--0-------------------------|
|   
  These notes will fold themselves.
E|--------------------------------------------------------------------|
B|--------------------------------------------------------------------|
G|----------------------------------------------9h10-9h10-9h10--------|
D|---3-3-3-3-3-3-3-3---5-5-5-5-5-5-5-5---0--0---0----0----0-----------|
A|---3-3-3-3-3-3-3-3---5-5-5-5-5-5-5-5---0--0-------------------------|
D|---3-3-3-3-3-3-3-3---5-5-5-5-5-5-5-5---0--0-------------------------|


(Not sure about this part)      

 Adjust the aperture to focus on the negative.. 
 Like phosphors in the darkroom ignite.
E|-----------------------------------------------------------------------|
B|-----------------------------------------------------------------------|
G|-----------------------------------------------------------------------|
D|-8-8-8-8-8-8---7-7-7-7-7-7-10-10---8-8-8-8-8-8-8-8---8-8-8-8-8-8--7-7--| 
A|-8-8-8-8-8-8---7-7-7-7-7-7-10-10---8-8-8-8-8-8-8-8---8-8-8-8-8-8--7-7--| 
D|-8-8-8-8-8-8---7-7-7-7-7-7-10-10---8-8-8-8-8-8-8-8---8-8-8-8-8-8--7-7--|
                                                    . . . . . . . .
 Like dodging faces in the corner of the print..
 Frame by frame, this hole is opening up.                  ... and we fall in.  
E|-------------------------------------------------------------------------------|
B|-------------------------------------------------------------------------------|
G|-------------------------------------------------------------------------------|
D|-8-8-8-8-8-8---7-7-7-7-7-7-10-10---8-8-8-8-8-8-8-8---8-8-8-8-8-8--7-7-7-7-7-7--| 
A|-8-8-8-8-8-8---7-7-7-7-7-7-10-10---8-8-8-8-8-8-8-8---8-8-8-8-8-8--7-7-7-7-7-7--| 
D|-8-8-8-8-8-8---7-7-7-7-7-7-10-10---8-8-8-8-8-8-8-8---8-8-8-8-8-8--7-7-7-7-7-7--|
                                                    . . . . . . . ...........
E|----------------------------| 
B|----------------------------| 
G|---10~----9~-----5~---------| 
D|----------------------------| 
A|---3~-----8~-----7~---------| 
D|----------------------------|


E|----------------------------------------------------------------------------| 
B|----------------------------------------------------------------------------| 
G|----------------------------------------------------------------------------| 
D|----------------------------------------------------------------------------| 
A|-8-8-8--7-7---8-8-8--7-7---8-8-8--7-7---8-8-8--7-7---5-5-5--5-5---8-8-8--8-8| 
D|-0-0-0--0-0---0-0-0--0-0---0-0-0--0-0---0-0-0--0-0---0-0-0--0-0---0-0-0--0-0|


 Slow, With above in background        (Variation)
E|---------------5--------|       |-----------------5------------| 
B|---------6--------6-----|       |-----------6--------6-----6---| 
G|------5-----5-----------|       |--------5-----5--------5------| 
D|---3--------------------|       |-----3------------------------| 
A|------------------------|       |------------------------------| 
D|------------------------|       |------------------------------| 

x1      
E|---------------------------------------------------------------------------| 
B|---------------------------------------------------------------------------| 
G|---------------------------------------------------------------------------| 
D|---------------------------------------------------------------------------| 
A|---8-8-8--7-7-----8-8-8--7-7-----------------------------------------------| 
D|---0-0-0--0-0-----0-0-0--0-0-----------------------------------------------|

 There is no... There is no.... such thing as whole.
 There is a... There is a...  hole in the world.
E|---------------------------------------------------------------------------| 
B|---------------------------------------------------------------------------| 
G|---------------------------------------------------------------------------| 
D|---0-0-0-0------0-0-0-0-----0-0-0-0-----0-0-0-0----------------------------| 
A|---0-0-0-0------0-0-0-0-----0-0-0-0-----0-0-0-0----------------------------| 
D|---0-0-0-0------0-0-0-0-----0-0-0-0-----0-0-0-0----------------------------|



End
comments
We did not receive enough feedback on this tab! Please rate:
print report bad tab
1 2 3 4 5
1 comment total.
+1 reply
frickenhypen wrote on March 4 2013, 04:07 am

Very well done. Thank you.

I want to post or [tab]
guest
You may want to rate the tab now too:
select rating
Please do not post tabs as comments. Select "correction" instead!