Oops, an error
Loading. Please wait.

A Sketch For Times Arrow Tab

1,491 views 3 this week
no commentswrite comment
1 2 3 4 5
please rate
add to favorites
launch autoscroll
font size
0
reset
how to read this tab
guitar tuner
Autoscroll
slow
fast
+/-
esc
set tempo
stop
Help us to improve Ultimate-Guitar.com Take our survey!
×
Author
Difficulty
This is an easy song to play as it's the same 4 chords the whole song but I couldn't
tabs to it anywhere on the internet. so here you go, thursday fans. This is the simple
demo version from Kill the House Lights album. The album version is on Common Existence 
there's a lot more to it, including these chords played backwards the entire second half
the song, but the chords should be the same. Let me know what you think. mr.spo@hotmail.com

0---0---0---0---0-0---0---0---0---0-1---1---1---1---1-0---0---0---0-|
1---1---1---1---1-0---0---0---0---0-1---1---1---1---1-0---0---0---0-|
2---2---2---2---1-1---1---1---1---1-2---2---2---2---2-1---1---1---1-|
2---2---2---2---2-2---2---2---2---2-3---3---3---3---3-2---2---2---2-|
0---0---0---0---0-2---2---2---2---2-x---x---x---x---x-0---0---0---0-|
x---x---x---x---x-x---x---x---x---x-x---x---x---x---x-x---x---x---x-|
repeat throughout

The rain falls up and off the street
0
1
2
2
0
x

The clocks turn back in retreat
0
0
1
2
2
x

Footsteps fall off of our feet
1
1
2
3
x
x

I see the tears crawling off your
0
0
1
2
0
x

cheeks, turn back to pink
0
1
2
2
0
x

The slap got pulled right off of it
0
0
1
2
2
x

we all fall back into bed
1
1
2
3
x
x

again
0
0
1
2
0
x

repeat chords the rest of song

guitar 2
--------------------------------------------|
-12----------------10-----------------------|
------9---12---12------12-------------------|
---------------------------12---10---9------|
--------------------------------------------|
--------------------------------------------| repeat the rest of song
(end of demo version)

(additional lyrics in album version)

When you see what you've done
You want to take back
To take it back
You can't, you can't
And it's killing you

(pause, then chords start playing backwards, for the rest of the song)

Doctor comes off the street
Stitch gets pulled out audibly
Mothers fall down in their seat
I can see time's arrow turning back to me
Children getting light
Disappear into a sign
We'll all rise like snowflakes in the sky tonight
Suggest correction
Give kudos to tab author, rate the tab!
1 2 3 4 5
comments
print report bad tab
guest
You may want to rate the tab now too:
select rating
Wanna post a correction for this tab? Suggest correction