Oops, an error
Loading. Please wait.

As He Climbed The Dark Mountain Tab

1,343 views 1 this week
no commentswrite comment
1 2 3 4 5
2 more votes to show rating
add to favorites
launch autoscroll
font size
0
reset
how to read this tab
guitar tuner
Autoscroll
slow
fast
+/-
esc
set tempo
stop
Help us to improve Ultimate-Guitar.com Take our survey!
×
Author
Website: http://www.youtube.com/soundofsurround
----All tabs I make are in video form on my channel on youtube

Tabbed by: Chaz Dunn
Email: beanzpigeon101@hotmail.com

Tuning: Drop D

| /  slide up
| \  slide down
| h  hammer-on
| p  pull-off
| ~  vibrato
| +  harmonic
| x  Mute note

This is the lead guitar section to the song. The second guitar either plays slightly 
backing, the same thing, or chords near the end etc. I am not posting the second guitar as 
is easy enough to work out :)


-------I have not yet finished tabbing this song, I will hopefully have it done 
in the next few days! :)


E|---------------------------------------------------------------------|
B|-------7-9-10--7-9-10--7-9-10--7-9-10--7-9-10--7-9-10-9--------------|
G|---------------------------------------------------------------------|
D|---------------------------------------------------------------------|
A|---------------------------------------------------------------------|
D|---------------------------------------------------------------------|


E|-----9--9-----7--7--7--7---------------------------------------------|
B|----10-10----9--7--9--7---- 7--7--/--9--9--9--9----------------------|
G|---------------------------------------------------------------------|
D|------------------------------4--4--/--6--6--6--6--------------------|
A|---------------------------------------------------------------------|
D|---------------------------------------------------------------------|


E|--------------------------------------------------------9--9---------|
B|------7--7--/--9--9--9--9----7--7--/--9--9--9--9----10-10------------|
G|---------------------------------------------------------------------|
D|------4--4--/--6--6--6--6----4--4--/--6--6--6--6---------------------|
A|---------------------------------------------------------------------|
D|---------------------------------------------------------------------|


E|-----7--7--7--7------------------------------------------------------|
B|-----9--7--9--7----7--7--/--9--9--9--9----7--7--/--9--9--9--9--------|
G|---------------------------------------------------------------------|
D|--------------------4--4--/--6--6--6--6----4--4--/--6--6--6--6-------|
A|---------------------------------------------------------------------|
D|---------------------------------------------------------------------|


E|----7--7--/--9--9--9--9-----9---9-----7--7--7--7---------------------|
B|-----------------------------10--10----9--7--9--7--------------------|
G|----4--4--/--6--6--6--6----------------------------------------------|
D|---------------------------------------------------------------------|
A|---------------------------------------------------------------------|
D|---------------------------------------------------------------------|


E|---------------------------------------------------------------------|
B|------7--7--/--9--9--9--9----7--7--/--9--9--9--9---------------------|
G|---------------------------------------------------------------------|
D|------4--4--/--6--6--6--6----4--4--/--6--6--6--6---------------------|
A|---------------------------------------------------------------------|
D|---------------------------------------------------------------------|


E|------------------------------9---9-----7--7--7--7-------------------|
B|-----7--7--/--9--9--9--9----10--10----9--7--9--7---------------------|
G|---------------------------------------------------------------------|
D|-----4--4--/--6--6--6--6---------------------------------------------|
A|---------------------------------------------------------------------|
D|---------------------------------------------------------------------|

E|---------------------------------------------------------------------|
B|------7--7--/--9--9--9--9----7--7--/--9--9--9--9---------------------|
G|---------------------------------------------------------------------|
D|------4--4--/--6--6--6--6----4--4--/--6--6--6--6---------------------|
A|---------------------------------------------------------------------|
D|---------------------------------------------------------------------|


E|-------------------------------9--9----------------------------------|
B|------7--7--/--9--9--9--9----10-10-----------------------------------|
G|---------------------------------------------------------------------|
D|------4--4--/--6--6--6--6--------------------------------------------|
A|---------------------------------------------------------------------|
D|---------------------------------------------------------------------|


E|-----------------------------------------------------7-------------------------|
B|-----10--9--7----10--9--7----10--9--7----10-9-7--------------------------------|
G|-------------------------------------------------------------------------------|
D|-------------------------------------------------------------------|       x 4-|
A|-------------------------------------------------------------------------------|
D|-------------------------------------------------------------------------------|


E|------------9-------10--12--------9--12--14--12-------9--12-----------------|
B|------7--9-------9----------9-10------------------10-9----------------------|
G|----------------------------------------------------------------------------|       x2
D|----------------------------------------------------------------------------|
A|----------------------------------------------------------------------------|
D|----------------------------------------------------------------------------|
Suggest correction
Give kudos to tab author, rate the tab!
1 2 3 4 5
comments
print report bad tab
guest
You may want to rate the tab now too:
select rating
Wanna post a correction for this tab? Suggest correction