Oops, an error
Loading. Please wait.

At This Velocity Bass Tab

version 1
version 1

Whole song

Interactive

646 views 1 this week
1 commentread comment
1 2 3 4 5
worth learning
x 1
add to favorites
launch autoscroll
font size
0
reset
guitar tuner
Tab Pro tools
  • play this tab
  • loop segment
  • change instrument
  • show fretboard
  • metronome
Autoscroll
slow
fast
+/-
esc
set tempo
stop
Contributor
Difficulty
Tuning
intermediate
D A D G B E
Artist:Thursday
Song: At This Velocity
Tabbed By : pblx19
e-mail: pblx19@yahoo.com

Tuning:Drop D

x1
G|-----------------------------------------------------------------------------|
D|-----------------------------------------------------------------------------|
A|--7-77---7--4-2--------------------------------------------------------------|
D|------00---0----3-3-333-3/12121212121212121011-------------------------------|

G|-----------------------------------------------------------------------------|
D|-----------------------------------------------------------------------------|
A|--7-77---7--4-2--------------------------------------------------------------|
D|------00---0----3-3-333-3/121212121212121212121212---------------------------|


x1
G|-----------------------------------------------------------------------------|
D|-----------------------------------------------------------------------------|
A|--7777-7777-7777999999---77--77--77999999------------------------------------|
D|-0----0----0------------0---0---0--------------------------------------------|


x1
G|-----------------------------------------------------------------------------|
D|-----------------------------------------------------------------------------|
A|--7--7--7999999---7--7--779--------------------------------------------------|
D|-0--0--0---------0--0--0-----------------------------------------------------|


x1
G|-----------------------------------------------------------------------------|
D|-----------------------------------------------------------------------------|
A|--7-77---7--4-2--------------------------------------------------------------|
D|------00---0----3-3-333-3/12121212121212121011-------------------------------|

G|-----------------------------------------------------------------------------|
D|-----------------------------------------------------------------------------|
A|--7-77---7--4-2--------------------------------------------------------------|
D|------00---0----3-3-333-3/121212121212121212121212---------------------------|


x1
G|-----------------------------------------------------------------------------|
D|-----------------------------------------------------------------------------|
A|-----------------------------------------------------------------------------|
D|--7-7-7-7-7-7-7-7-7-7-7-7-3~-------------------------------------------------|

G|-----------------------------------------------------------------------------|
D|-----------------------------------------------------------------------------|
A|-----------------------------------------------------------------------------|
D|--7-7-7-7-7-7-7-7-7-7-7-7-9999999999991--------------------------------------|


x1
G|---------------------------------------------------------------------------|
D|---------------------------------------------------------------------------|
A|--7--7-----------777--777--------------------------------------------------|
D|---0--0-77779999----0----0-77779999----------------------------------------|


x1
G|-----------------------------------------------------------------------------|
D|-----------------------------------------------------------------------------|
A|--7--7--7999999---7--7--77999999---------------------------------------------|
D|-0--0--0---------0--0--0-----------------------------------------------------|


Break


x1
G|-----------------------------------------------------------------------------|
D|-----------------------------------------------------------------------------|
A|--7--7-------------7--7------------------------------------------------------|
D|---0--0-7777999999--0--0-7777999999------------------------------------------|


x1
G|-----------------------------------------------------------------------------|
D|-----------------------------------------------------------------------------|
A|--7--7--7999999---7--7--77\--------------------------------------------------|
D|-0--0--0---------0--0--0-----------------------------------------------------|


x4
G|-----------------------------------------------------------------------------|
D|-----------------------------------------------------------------------------|
A|-----------------------------------------------------------------------------|
D|--7~--7~--7~--7~--9~--9~--12~--12\55-----------------------------------------|


x1
G|-----------------------------------------------------------------------------|
D|-----------------------------------------------------------------------------|
A|-----------------------------------------------------------------------------|
D|--7~--7~--7~--7~--7~---------------------------------------------------------|

| /  slide up
| \  slide down
| h  hammer-on
| p  pull-off
| ~  vibrato
| +  harmonic
| x  Mute note
===============================================================================
comments
We did not receive enough feedback on this tab! Please rate:
print report bad tab
1 2 3 4 5
1 comment total.
0 reply
zaingasm wrote on May 4 2009, 11:22 am

Just by looking at it, I can tell the outro is wrong. There is sliding in the outro on bass. I'm at school right now so I cant play it and see if the rest of it is correct, but it seems like it will be. So I'll rate it when I get home.

I want to post or [tab]
guest
You may want to rate the tab now too:
select rating
Please do not post tabs as comments. Select "correction" instead!