Oops, an error
Loading. Please wait.

Autobiography Of A Nation Tab

version 2
version 2

Whole song

Interactive

2,378 views 6 this week
1 commentread comment
1 2 3 4 5
please rate
add to favorites
launch autoscroll
font size
0
reset
how to read this tab
guitar tuner
Autoscroll
slow
fast
+/-
esc
set tempo
stop
Help us to improve Ultimate-Guitar.com Take our survey!
×
Tuning
D A D G B E
Autobiography of a Nation
By Thursday

I’ve lined the both guitar parts up so you know when to play them.

Guitar 1 (clean)
e|-------------------------------------------------------------------------|
B|-------------------------------------------------------------------------|
G|-19-19-19-19-19-19-19-19-17-17-17-17-17-17-17-17-14-14-14-14-14-14-14-14-|
D|-------------------------------------------------------------------------|
A|-17-17-17-17-17-17-17-17-15-15-15-15-15-15-15-15-12-12-12-12-12-12-12-12-|
D|-------------------------------------------------------------------------|
Guitar 2 (clean)
e|--------------------------------------------------------------------------|
B|-15~---------------------13~---------------------10~----------------------|
G|-14~---------------------12~----------------------9/109~------------------|
D|--0~----------------------0~----------------------0~----------------------|
A|--------------------------------------------------------------------------|
D|--------------------------------------------------------------------------|

Guitar 1 (clean)
e|-------------------------------------------------------------------------|
B|-------------------------------------------------------------------------|
G|-14-14-14-14-14-14-14-14-17-17-17-17-17-17-17-17-15-15-15-15-15-15-15-15-|
D|-------------------------------------------------------------------------|
A|-12-12-12-12-12-12-12-12-15-15-15-15-15-15-15-15-13-13-13-13-13-13-13-13-|
D|-------------------------------------------------------------------------|
Guitar 2 (clean)
e|------------------------------------------------------------------|
B|-------------------------13~---------------------11~--------------|
G|-------------------------12~---------------------12~--------------|
D|--------------------------0~----------------------0~--------------|
A|------------------------------------------------------------------|
D|------------------------------------------------------------------|

Guitar 1 (clean)
e|-------------------------------------------------|
B|-------------------------------------------------|
G|-14-14-14-14-14-14-14-14-14-14-14-14-14-14-14-14-|
D|-------------------------------------------------|
A|-12-12-12-12-12-12-12-12-12-12-12-12-12-12-12-12-|
D|-------------------------------------------------|
Guitar 2 (clean)
e|-------------------------------------------------|
B|--8~---------------------------------------------|
G|--7~---------------------------------------------|
D|--0~---------------------------------------------|
A|-------------------------------------------------|
D|-------------------------------------------------|

Repeat the part above once

Guitar 1 (clean)
e|-------------------------------------------------------------------------|
B|-------------------------------------------------------------------------|
G|-19-19-19-19-19-19-19-19-17-17-17-17-17-17-17-17-14-14-14-14-14-14-14-14-|
D|-------------------------------------------------------------------------|
A|-17-17-17-17-17-17-17-17-15-15-15-15-15-15-15-15-12-12-12-12-12-12-12-12-|
D|-------------------------------------------------------------------------|
Guitar 2 (clean)
e|-------------------------------------------------------------------------|
B|-15-15-15-15-15-15-15-15-13-13-13-13-13-13-13-13-10-10-10-10-10-10-10-10-|
G|-14-14-14-14-14-14-14-14-14-14-14-14-14-14-14-14--9--9--9--9--9--9--9--9-|
D|-12-12-12-12-12-12-12-12-12-12-12-12-12-12-12-12--0--0--0--0--0--0--0--0-|
A|-------------------------------------------------------------------------|
D|-------------------------------------------------------------------------|

Guitar 1 (clean)
e|-------------------------------------------------------------------------|
B|-------------------------------------------------------------------------|
G|-14-14-14-14-14-15-15-15-17-17-17-17-17-17-17-17-15-15-15-15-15-15-15-15-|
D|-------------------------------------------------------------------------|
A|-12-12-12-12-12-13-13-13-15-15-15-15-15-15-15-15-13-13-13-13-13-13-13-13-|
D|-------------------------------------------------------------------------|
Guitar 2 (clean)
e|-------------------------------------------------------------------------|
B|-10-10-10-10-10-10-10-10-13-13-13-13-13-13-13-13-11-11-11-11-11-11-11-11-|
G|--9--9--9--9--9--9--9--9-14-14-14-14-14-14-14-14-10-10-10-10-10-10-10-10-|
D|--0--0--0--0--0--0--0--0-12-12-12-12-12-12-12-12-12-12-12-12-12-12-12-12-|
A|-------------------------------------------------------------------------|
D|-------------------------------------------------------------------------|

Guitar 1 (clean)
e|-------------------------------------------------|
B|-------------------------------------------------|
G|-14-14-14-14-14-14-14-14-14-14-14-14-14-15-15-15-|
D|-------------------------------------------------|
A|-12-12-12-12-12-12-12-12-12-12-12-12-12-13-13-13-|
D|-------------------------------------------------|
Guitar 2 (clean)
e|-------------------------------------------------|
B|-10-10-10-10-10-10-10-10-10-10-10-10-10-10-10-10-|
G|--9--9--9--9--9--9--9--9--9--9--9--9--9--9--9--9-|
D|--0--0--0--0--0--0--0--0--0--0--0--0--0--0--0--0-|
A|-------------------------------------------------|
D|-------------------------------------------------|

Repeat that section once too, but add this on to guitar 2s part the second time
e|------------------------------|
B|----10------10-----10------10-|
G|--------10-------------10-----| x2
D|-8--------------8-------------|
A|------------------------------|
D|------------------------------|

Guitar 1 with distortion
e|-----------------------------------------------------------------|
B|-----------------------------------------------------------------|
G|-----------------------------------------------------------------|
D|-8-8-8-8-8-8-8-8-8-8-8-8-8-8-8-8-7-7-7-7-7-7-7-7-7-7-7-7-7-7-7-7-|
A|-8-8-8-8-8-8-8-8-8-8-8-8-8-8-8-8-5-5-5-5-5-5-5-5-5-5-5-5-5-5-5-5-|
D|-8-8-8-8-8-8-8-8-8-8-8-8-8-8-8-8-0-0-0-0-0-0-0-0-0-0-0-0-0-0-0-0-|
Guitar 2 with distortion
e|-----------------------------------------------------------------|
B|-----------------------------------------------------------------|
G|1515151515151515151515151515151512121212121212121414141414141414-|
D|-----------------------------------------------------------------|
A|1313131313131313131313131313131310101010101010101212121212121212-|
D|-----------------------------------------------------------------|
repeat this section after the next one
Guitar 1 (distortion)
e|-----------------------------------------------------------------|
B|-----------------------------------------------------------------|
G|-----------------------------------------------------------------|
D|-8-8-8-8-8-8-8-8-8-8-8-8-8-8-8-8-7-7-7-7-7-7-7-7-7-7-7-7-7-7-7-7-|
A|-8-8-8-8-8-8-8-8-8-8-8-8-8-8-8-8-5-5-5-5-5-5-5-5-5-5-5-5-5-5-5-5-|
D|-8-8-8-8-8-8-8-8-8-8-8-8-8-8-8-8-0-0-0-0-0-0-0-0-0-0-0-0-0-0-0-0-|
Guitar 2 (distortion)
e|-------------------------------------------------------------------------|
B|-------------------------------------------------------------------------|
G|-3-3-3-3-3-3-3-3-5-5-5-7-7-7-7-7-9-9-9-9-9-9-9-9-15-15-15-14-14-14-14-14-|
D|-------------------------------------------------------------------------|
A|-1-1-1-1-1-1-1-1-3-3-3-5-5-5-5-5-7-7-7-7-7-7-7-7-13-13-13-12-12-12-12-12-|
D|-------------------------------------------------------------------------|

Guitar 1 (distortion)
e|-------------------------------------------------------|----------------|
B|-------------------------------------------------------|----------------|
G|-----------------------------------------12----------12|------12-----12-|x2
D|-8-8-8-8-8-8-8-8-8-8-8-8-8-8-8-8-----------------------|----------------|
A|-8-8-8-8-8-8-8-8-8-8-8-8-8-8-8-8---------10----------10|------10-----10-|
D|-8-8-8-8-8-8-8-8-8-8-8-8-8-8-8-8-00000000----00000000--|0-0-0---0-0-0---|
Guitar 2 (distortion)
e|-------------------------------------------------------|----------------|
B|-------------------------------------------------------|----------------|
G|-3-3-3-3-3-3-3-3-5-5-5-7-7-7-7-7---------12----------12|------12----12--|x2
D|-------------------------------------------------------|----------------|
A|-1-1-1-1-1-1-1-1-3-3-3-5-5-5-5-5---------10----------10|------10----10--|
D|---------------------------------00000000----00000000--|0-0-0----0-0-0--|
Repeat once

Guitar 1 (clean)
e|----------------|
B|----------------|
G|-17~--15~--14~--| x6
D|----------------|
A|-15~--13~--12~--|
D|----------------|

Guitar 2 (clean)
e|----------------|                               e|-----------------------|
B|-13~--11~--10~--|                               B|-----------------------|
G|-14~--10~---9~--| Do this twice then do this x4 G|-15------17------14----|
D|-12~--12~---0~--|                               D|----15------15------15-|
A|----------------|                               A|-----------------------|
D|----------------|                               D|-----------------------|

Guitar 1 (distortion)
e|-----------------------------------------------------------------|
B|-----------------------------------------------------------------|
G|-----------------------------------------------------------------|
D|-8-8-8-8-8-8-8-8-5-5-5-5-5-5-5-5-0-0-0-0-0-0-0-0-0-0-0-0-0-0-0-0-|
A|-8-8-8-8-8-8-8-8-5-5-5-5-5-5-5-5-0-0-0-0-0-0-0-0-0-0-0-0-0-0-0-0-|
D|-8-8-8-8-8-8-8-8-5-5-5-5-5-5-5-5-0-0-0-0-0-0-0-0-0-0-0-0-0-0-0-0-|
Guitar 2 (distortion)                                                   x4
e|-----------------------------------------------------------------|
B|-----------------------------------------------------------------|
G|1210-910-9-7---910-9-7-9-7--------------------------141414141414-|
D|---------------------------------0-------0-----0-0---------------|
A|10-8-7-8-7-5---7-8-7-5-7-5-------0-------0-----0-0--121212121212-|
D|---------------------------------0-------0-----0-0---------------|
Guitar 2 does this every other time
e|-----------------------------------------------------------------|
B|-----------------------------------------------------------------|
G|1210-910-9-7---910-9-7-9-7------14------14----141414151515141414-|
D|-----------------------------------------------------------------|
A|10-8-7-8-7-5---7-8-7-5-7-5------12------12----121212131313121212-|
D|-----------------------------------------------------------------|

Guitar 1 (distortion)          x4
e|--------------------------------------------------------------------------|
B|--------------------------------------------------------------------------|
G|-10-10-10-10-10-10-10-12--------------------------------------------------|
D|-------------------------1010101010101010-5-5-5-5-5-5-5-5-8-8-8-8-8-8-8-8-|
A|--8--8--8--8--8--8--8-10-1010101010101010-5-5-5-5-5-5-5-5-8-8-8-8-8-8-8-8-|
D|-------------------------1010101010101010-5-5-5-5-5-5-5-5-8-8-8-8-8-8-8-8-|
Guitar 2 (distortion)          x2
e|--------------------------------------------------------------------------|
B|--------------------------------------------------------------------------|
G|--7--7--7--7--7--7--7--7--2-2-2-2-2-2-2-2-3-3-3-3-3-3-3-3-5-5-5-5-5-5-5-5-|
D|--7--7--7--7--7--7--7--7--2-2-2-2-2-2-2-2-3-3-3-3-3-3-3-3-5-5-5-5-5-5-5-5-|
A|--5--5--5--5--5--5--5--5--0-0-0-0-0-0-0-0-1-1-1-1-1-1-1-1-3-3-3-3-3-3-3-3-|
D|--------------------------------------------------------------------------|

Guitar 1 keeps doing the same thing, and on the third time guitar 2 does this
e|--------------------------------------------------------------------------|
B|--------------------------------------------------------------------------|
G|--7--7--7--7--7--7--7-17-141212121212121214121212121212121212121212121212-|
D|--------------------------------------------------------------------------|
A|--5--5--5--5--5--5--5-15-121010101010101012101010101010101010101010101010-|
D|--------------------------------------------------------------------------|
and on the 4th time guitar 2 does this
e|--------------------------------------------------------------------------|
B|--------------------------------------------------------------------------|
G|--7--7--7--7--7--7--7-17-141212121212121212191919191919191919191919191919-|
D|--------------------------------------------------------------------------|
A|--5--5--5--5--5--5--5-15-121010101010101010171717171717171717171717171717-|
D|--------------------------------------------------------------------------|

Guitar 1 (distortion)
e|------------------------|
B|------------------------|
G|------------------------| x4
D|-0-0-0--8--0-0--0--0-8--|
A|-0-0-0--8--0-0--0--0-8--|
D|-0-0-0--8--0-0--0--0-8--|
Guitar 2 (distortion)
e|------------------------|
B|------------------------|
G|--------5------------5--| x2
D|-0-0-0-----0-0--0--0----|
A|-0-0-0--3--0-0--0--0-3--|
D|-0-0-0-----0-0--0--0----|
Guitar 2 does this once after the part above
e|--------------------------------------------------|
B|--------------------------------------------------|
G|-------12------------12-14--------17-----------17-|
D|-0-0-0-----0-0--0--0--------0-0-0----0-0--0--0----|
A|-0-0-0-10--0-0--0--0-10-12--0-0-0-15-0-0--0--0-15-|
D|-0-0-0-----0-0--0--0--------0-0-0----0-0--0--0----|
Suggest correction
Give kudos to tab author, rate the tab!
1 2 3 4 5
comments
print report bad tab
1 comment total.
0 reply
aut.RiPPeR 219 wrote on April 18 2006, 11:52 am


Great work!

greetz
chris

guest
You may want to rate the tab now too:
select rating
Please do not post tabs as comments. Select "correction" instead!