Oops, an error
Loading. Please wait.

Between Rupture And Rapture Tab

version 1
version 1

Whole song

Interactive

1,398 views 6 this week
no commentswrite comment
1 2 3 4 5
accurate
x 1
add to favorites
launch autoscroll
font size
0
reset
how to read this tab
guitar tuner
Tab Pro tools
  • play this tab
  • loop segment
  • change instrument
  • show fretboard
  • metronome
Autoscroll
slow
fast
+/-
esc
set tempo
stop
Contributor
This is the whole tab for between rapture and rupture-please rate---

Tuning is in drop D...

intro u palm this then slightly let up on palming-

e----------------------------------------------------|
b----------------------------------------------------|
g-4444 x4--4442h444444442h4--------------------------|
d----------------------------------------------------|
a----------------------------------------------------|
D----------------------------------------------------|

strum these notes over intro
e---------------------------------------------------------|
b---------------------------------------------------------|
g11-----7-----------0-------------------------------------|
d-9-----7---------2---------------------------------------|
a-9-----5-------2-----------------------------------------|
D-9-----5-----2-------------------------------------------|

   verse                              its turning on....
e------------------------------------------------------|
b-2223333-333555553333333777777710-----777-77----------|
g-22222220444444444444444777777710-x2--000-00----------|
d--------------------------------------999-99----------|
a------------------------------------------------------|
D------------------------------------------------------|

chorus for gt.1
e-----------------------------------------------------|
b-----------------------------------------------------|
g-11111111-9--1111-7-7-44444444----444444445555555544-|
d-xxxxxxxx-xh-xxxx-x-x-xxxxxxxx-x2-xxxxxxxxxxxxxxxxxx-|
a-99999999-7--9999-5-5-22222222----222222223333333322-|
D-----------------------------------------------------|

gt.2

e-----------------------------------------------------|
b-777777777-------------------------------------------|
g-777777777-99-11-7-7-44444444------------------------|
d-999999999-xx-x--x-x-22222222------------------------|
a-999999999-77-9--5-5-22222222------------------------|
D-999999999-----------22222222------------------------|


e-------------------------9------9------------------------|
b--------------------------10--10-10----------------------|
g----------666-66-6-99-------11-----11--------------------|
d---666-66-666-66-x-xx-0----------------------------------|
a---666-66-444-44-4-77-0----------------------------------|
D---666-66-------------0----------------------------------|
then u repeat chorus--use chords for fills

use harmonics for picked chords
e---------------------------------------------------------|
b---------------------------------------------------------|
g-5--7--7----------------7--------------------------------|
d----7-----222222--5--7----222222-------------------------| repeat 4 times
a----------222222----------222222-------------------------|
D----------222222----------222222-------------------------|


e----------------------------------------------------|
b----------------------------------------------------|
g-4-----161616-9-161616------------------------------|
d-x..---xxxxxx-x-xxxxxx------------------------------| repeat 4 times
a-2-----141414-7-141414------------------------------|
D----------------------------------------------------|

alone is all we are.....
e-----------1717-1414-----------------------------------------|
b-1515-1414-x-x--x-x------------------------------------------|
g-1616-1616-1616-1616------------------------------  repeat 2-|
d-------------------------------------------------------------|
a-------------------------------------------------------------|


repeat chorus


outro

e-------------------------------------------------------|
b------------5---------5--------------------------------|
g------5-----5-444444--5--------------------------------|
d-222--5-222-5-222222--5--------------------------------|
a-222--5-222-5-333333-----------------------------------|
D-222----222---222222-----------------------------------|


there it is-sort of hard to read but its all there.
D----------------------------------------------------
comments
We did not receive enough feedback on this tab! Please rate:
print report bad tab
1 2 3 4 5
I want to post or [tab]
guest
You may want to rate the tab now too:
select rating
Please do not post tabs as comments. Select "correction" instead!