Oops, an error
Loading. Please wait.

Concealer Tab

1,954 views 3 this week
no commentswrite comment
1 2 3 4 5
x 6
add to favorites
launch autoscroll
font size
0
reset
how to read this tab
guitar tuner
Autoscroll
slow
fast
+/-
esc
set tempo
stop
Help us to improve Ultimate-Guitar.com Take our survey!
×
--------------------------------------------------------------------------------
                              THURSDAY - CONCEALER
--------------------------------------------------------------------------------

tabbed by: Randy Cornett (a.k.a stellar_hands)
e-mail: thursday_calgone@hotmail.com

tuning: Dropped D

This is one of those songs that your just going to want to crank up the
distortion and let er' rip. Short, simple, and sweet (yeah bo-i!). You'll have to
excuse me if parts of this song don't sound completely right. I don't have a
guitar in my hands right now. Anyway, have at you!:

Guitar 1
e------------------------------------------------------|
B--0-0-0-0-0-0---------------0-0-0-0-0-0---------------|
G--2-2-2-2-2-2--5-5-5-5-5-5--2-2-2-2-2-2--5-5-5-5-5-5--|
D--2-2-2-2-2-2--5-5-5-5-5-5--2-2-2-2-2-2--5-5-5-5-5-5--|
A--0-0-0-0-0-0--3-3-3-3-3-3--0-0-0-0-0-0--3-3-3-3-3-3--|
D--0-0-0-0-0-0--3-3-3-3-3-3--0-0-0-0-0-0--3-3-3-3-3-3--|
                 "With fists raised high and.."
Guitar 2 (kicks in at the end of guitar ones riff)
e------------------------------------------------------|
B------------------------------------------------------|
G---------------------------------------/10-9-10--9-9--|
D---------------------------------------/-x-x--x--x-x--|
A---------------------------------------/-8-7--8--7-7--|
D------------------------------------------------------|

Guitar 1
e------------------------------------------------------|
B------------------------------------------------------|
G------------------------------------------------------|
D--0-0-0-0-0-0--3-3-3-3-3-3--0-0-0-0-0-0--3-3-3-3-3-3--|
A--0-0-0-0-0-0--3-3-3-3-3-3--0-0-0-0-0-0--3-3-3-3-3-3--|
D--0-0-0-0-0-0--3-3-3-3-3-3--0-0-0-0-0-0--3-3-3-3-3-3--|
 "The room explodes, and now this blood..."
Guitar 2
e------------------------------------------------------------|
B------------------------------------------------------------|
G--7-7-7-7-7-7---10-10-10/9-9-9---7-7-7-7-7-7---12-12-12-12--|
D--x-x-x-x-x-x----x--x--x/x-x-x---x-x-x-x-x-x----x--x--x--x--|
A--5-5-5-5-5-5----8--8--8/7-7-7---5-5-5-5-5-5---10-10-10-10--|
D------------------------------------------------------------|

Repeat everything above one more time than come to this, everything slows down a little bit:

Guitar 1
e------------------------------------------------------|
B------------------------------------------------------|
G------------------------------------------------------|
D--5-5-5-5-5-5--3-3-3-3-3-3--5-5-5-5-5-5--3-3-3-3-3-3--|
A--3-3-3-3-3-3--3-3-3-3-3-3--3-3-3-3-3-3--3-3-3-3-3-3--|
D---------------3-3-3-3-3-3---------------3-3-3-3-3-3--|
         "You stole the rain..."

Guitar 2
e--------------------------------------------------------|
B--------------------------------------------------------|
G-14-14-14-14-14-14---9/10/10/10/9--14-14-14-14-14-14----|
D--x--x--x--x--x--x---x/-x/-x/-x/x---x--x--x--x--x--x----|
A-12-12-12-12-12-12---7/-8/-7/-8/7--12-12-12-12-12-12----|
D--0--0--0--0--0--0------------------0--0--0--0--0--0----|

Guitar 2 (continued)
e-----------------------------------------------|
B-----------------------------------------------|
G--17-17-17-16-16-16-17-17-17--19-19-19-19-19---|
D---x--x--x--x--x--x--x--x--x---x--x--x--x--x---|
A--15-15-15-14-14-14-15-15-15--17-17-17-17-17---|
D-----------------------------------------------|

Repeat evrything above one more time. I'm not to sure about this next part. It
sounds like there's a lot more going on than I figured out (In fact, that's
exactly what's going on). Oh well, sounds close enough for my taste.

Both guitars
e----------------------------------------------------------------|
B----------------------------------------------------------------|
G----------------------------------------------------------------|
D--5-5-5-5-5-5-5-x-5-5-5-5-5-5-5-x-3-3-3-3-3-3-3-x-3-3-3-3-3-3---|
A--3-3-3-3-3-3-3-x-3-3-3-3-3-3-3-x-3-3-3-3-3-3-3-x-3-3-3-3-3-3---|
D----------------------------------3-3-3-3-3-3-3-x-3-3-3-3-3-3---|
 " So fold me up..."
e-----------------------------------------------------------------|
B-----------------------------------------------------------------|
G-----------------------------------------------------------------|
D--5-5-5-5-5-5-5-x-5-5-5-5-5-5-5-x-2-2-2-2-2-2-2-x-3-3-3-3-3-3-3--|
A--3-3-3-3-3-3-3-x-3-3-3-3-3-3-3-x-2-2-2-2-2-2-2-x-3-3-3-3-3-3-3--|
D----------------------------------2-2-2-2-2-2-2-x-3-3-3-3-3-3-3--|

Both guitars (not sure about this part either)
e-----------------------------------------|
B-----------------------------------------|
G-----------------------------------------|
D--7-7-7-7-7------------------------------|
A--7-7-7-7-7----------x-x---------x-x-----|
D--7-7-7-7-7----------x-x---------x-x-----|
             "Candence beats down on the tar..."

e-------------------------------------------------|
B-------------------------------------------------|
G-------------------------------------------------|
D----------------5-5-5-5-5--------5-5-5-5-5-5-5---|
A----------------3-3-3-3-3--------3-3-3-3-3-3-3---|
D----------------3-3-3-3-3--3b-0--3-3-3-3-3-3-3---|
  "It sounds the same as your fists...."

Repeat that until the Outro

Outro (both guitars)
e----------------------------------------|
B----------------------------------------|
G----------------------------------------| Reepeat until the end.
D----------------------------------------|
A--7-7-7-7-7-7-7-7-x-7-7-7-7-7-7-7-7-x---|
D--7-7-7-7-7-7-7-7-x-7-7-7-7-7-7-7-7-x---|


That's what I have figured out. Any problems or corrections....
than just figure them out yourself. Ha Ha! Bye!
Suggest correction
comments
print report bad tab
guest
You may want to rate the tab now too:
select rating
Wanna post a correction for this tab? Suggest correction