Oops, an error
Loading. Please wait.

Counting 5-4-3-2-1 Bass Tab

version 1
version 1

Whole song

Interactive

1,509 views 6 this week
2 commentsread comments
1 2 3 4 5
excellent!
x 3
add to favorites
launch autoscroll
font size
0
reset
guitar tuner
Tab Pro tools
  • play this tab
  • loop segment
  • change instrument
  • show fretboard
  • metronome
Autoscroll
slow
fast
+/-
esc
set tempo
stop
Difficulty
Tuning
advanced
D A D G B E
  Intro:  Play 2x
G|----------------------------------------------------------------------|
D|----------------------------------------------------------------------|
A|-----------------------------------------------------------9/12-12-12-|
D|-11-11-11-11---11-11-11-11---11-11-11-11---11-11-11--0000-------------|

G|---------------------------------|------------------------------|
D|---------------------------------|------------------------------|
A||--12/14\12-----9----------9-----|--9---11---12--11---9--11--9--|
D|------------99---9999--99---99---|----9----9----9---9-----------|


  Verse:  Play 4x
G|-------------------------------------------------------------------|
D|-------------------------------------------------------------------|
A|-----------------------------------------777-----------------------|
D|-11-11-11-11---11-11-11-11---11-11-11-11------7777-7777-7777--77-9-|


  After 1st verse: 
  (    Play 2x     )
G|-------------------|-------------------|---------------------|
D|-------------------|-------------------|---------------------|
A|----6-7------------|--4----------------|--4------------------|
D|-11------77--7--9--|----1-2--2/77--7-9-|----1-2--2/7777--99--|


  Chorus:  Play 2x
G|----------------------------------------------------------------------|
D|----------------------------------------------------------------------|
A|-----------------------------------------------------------9/12-12-12-|
D|-11-11-11-11---11-11-11-11---11-11-11-11---11-11-11--0000-------------|

G|---------------------------------|------------------------------|
D|---------------------------------|------------------------------|
A|---12/14\12-----9----------9-----|--9---11---12--11---9--11--9--|
D|------------99---9999--99---99---|----9----9----9---9-----------|


  Verse:  Play 2x
G|-------------------------------------------------------------------|
D|-------------------------------------------------------------------|
A|-----------------------------------------777-----------------------|
D|-11-11-11-11---11-11-11-11---11-11-11-11------7777-7777-7777--77-9-|


  After 2nd Verse:  Play 4x
G|----------------------|
D|----------------------|
A|-----------77---------|
D|-11-11-11-----77--7-9-|

  Play 4x: (Play stacatto)
G|----------------|
D|----------------|
A|-44-------------|
D|------22/77--79-|


  Chorus:  Play 2x
G|----------------------------------------------------------------------|
D|----------------------------------------------------------------------|
A|-----------------------------------------------------------9/12-12-12-|
D|-11-11-11-11---11-11-11-11---11-11-11-11---11-11-11--0000-------------|

G|---------------------------------|------------------------------|
D|---------------------------------|------------------------------|
A||--12/14\12-----9----------9-----|--9---11---12--11---9--11--9--|
D|------------99---9999--99---99---|----9----9----9---9-----------|


  Bridge:  Play 2x
G|--------------------------------------|-----------------------|
D|--------------------------------------|-----------------------|
A|---------------------9-11-9----11-12--|-----------------------|
D|-11-11-11---11-11-11--------00--------|--12/14--12-12---7-9-7-|



G|--------------------------------|----------------------------------------|
D|--------------------------------|----------------------------------------|
A|--------------------------------|----------------------------------------|
D|-11-11-11-11-11-11-11--000-000--|-11-11-11-11-11-11--0000-00-11-11-11-11-|


  Ending: Play whole thing 3x
G|--------------------------|---------------------------|
D|--------------------------|---------------------------|
A|--------------------------|---------------------------|
D|-11-11-11-11--11-11-11-11-|-11-11-11-11--11-11-11-11--|

G|----------------------------------------------------|
D|----------------------------------------------------|
A|----------------------------------------------------|
D|-0000-0000-0000-0000--9999-9999-9999-9999-0000-0000-|

1st & 2nd Ending           3rd Ending
G|-----------|           G|----------------|
D|-----------|           D|----------------|
A|-0000-0000-|           A|----------------|
D|-----------|           D|-11-11-11-11-11-|
comments
We did not receive enough feedback on this tab! Please rate:
print report bad tab
1 2 3 4 5
2 comments total.
0 reply
Jedddd wrote on November 15 2006, 10:14 pm

This is a pretty good tab. Not all correct.. but when you play the song you will get the idea.

0 reply
atreyukicksass wrote on May 6 2007, 09:14 pm

are those 11s or 1s? im thinkin 11s because its higher, but you never know, great tab :)

I want to post or [tab]
guest
You may want to rate the tab now too:
select rating
Please do not post tabs as comments. Select "correction" instead!